ISO-10303-21;
HEADER;
FILE_DESCRIPTION(('STEP AP214'),
    '1');
FILE_NAME('îïîðíûå äèñêè',
    '',
    ('UNSPECIFIED'),
    ('UNSPECIFIED'),
    'C3D Converter',
    'C3D Toolkit',
    '');
FILE_SCHEMA(('AUTOMOTIVE_DESIGN { 1 0 10303 214 3 1 1}'));
ENDSEC;

DATA;
#1=PRODUCT_DEFINITION('','UNSPECIFIED',#28,#31);
#2=SHAPE_DEFINITION_REPRESENTATION(#26,#3);
#3=SHAPE_REPRESENTATION('NONE',(#4),#8);
#4=AXIS2_PLACEMENT_3D('',#5,#6,#7);
#5=CARTESIAN_POINT('',(0.,0.,0.));
#6=DIRECTION('',(0.,0.,1.));
#7=DIRECTION('',(1.,0.,0.));
#8=(GEOMETRIC_REPRESENTATION_CONTEXT(3)GLOBAL_UNCERTAINTY_ASSIGNED_CONTEXT((#10))
GLOBAL_UNIT_ASSIGNED_CONTEXT((#9,#11,#12))REPRESENTATION_CONTEXT('NONE','NONE'));
#9=(LENGTH_UNIT()NAMED_UNIT(*)SI_UNIT(.MILLI.,.METRE.));
#10=UNCERTAINTY_MEASURE_WITH_UNIT(LENGTH_MEASURE(1.E-5),#9,'NONE','NONE');
#11=(NAMED_UNIT(*)PLANE_ANGLE_UNIT()SI_UNIT($,.RADIAN.));
#12=(NAMED_UNIT(*)SI_UNIT($,.STERADIAN.)SOLID_ANGLE_UNIT());
#13=MANIFOLD_SOLID_BREP('',#14);
#14=CLOSED_SHELL('',(#53,#62,#71,#80));
#15=COLOUR_RGB('',0.564705882352941,0.564705882352941,0.564705882352941);
#16=FILL_AREA_STYLE_COLOUR('',#15);
#17=FILL_AREA_STYLE($,(#16));
#18=SURFACE_STYLE_FILL_AREA(#17);
#19=SURFACE_SIDE_STYLE('',(#18));
#20=SURFACE_STYLE_USAGE(.BOTH.,#19);
#21=PRESENTATION_STYLE_ASSIGNMENT((#20));
#22=MECHANICAL_DESIGN_GEOMETRIC_PRESENTATION_REPRESENTATION('NONE',(#23,#61,#70,
#79,#88),#8);
#23=STYLED_ITEM('',(#21),#13);
#24=ADVANCED_BREP_SHAPE_REPRESENTATION('NONE',(#13),#8);
#25=SHAPE_REPRESENTATION_RELATIONSHIP('','',#3,#24);
#26=PRODUCT_DEFINITION_SHAPE('NONE','NONE',#1);
#27=MECHANICAL_CONTEXT('NONE',#32,'mechanical');
#28=PRODUCT_DEFINITION_FORMATION_WITH_SPECIFIED_SOURCE('ANY','UNSPECIFIED',#29,.NOT_KNOWN.);
#29=PRODUCT('','\X2\0414043504420430043B044C\X0\','NONE',(#27));
#30=PRODUCT_RELATED_PRODUCT_CATEGORY('detail','',(#29));
#31=DESIGN_CONTEXT('detailed design',#32,'design');
#32=APPLICATION_CONTEXT('configuration controlled 3d designs of mechanical parts and assemblies');
#33=APPLICATION_PROTOCOL_DEFINITION('international standard','config_control_design',
1994,#32);
#34=CC_DESIGN_DATE_AND_TIME_ASSIGNMENT(#35,#39,(#1));
#35=DATE_AND_TIME(#36,#37);
#36=CALENDAR_DATE(0,1,1);
#37=LOCAL_TIME(0,0,0.,#38);
#38=COORDINATED_UNIVERSAL_TIME_OFFSET(0,0,.AHEAD.);
#39=DATE_TIME_ROLE('creation_date');
#40=CC_DESIGN_APPROVAL(#41,(#1));
#41=APPROVAL(#42,'UNSPECIFIED');
#42=APPROVAL_STATUS('not_yet_approved');
#43=APPROVAL_DATE_TIME(#44,#41);
#44=DATE_AND_TIME(#45,#46);
#45=CALENDAR_DATE(0,1,1);
#46=LOCAL_TIME(0,0,0.,#47);
#47=COORDINATED_UNIVERSAL_TIME_OFFSET(0,0,.AHEAD.);
#48=PERSON('UNSPECIFIED','Àíäðåé','UNSPECIFIED',('UNSPECIFIED'),('UNSPECIFIED'),
('UNSPECIFIED'));
#49=ORGANIZATION('UNSPECIFIED','UNSPECIFIED','UNSPECIFIED');
#50=PERSON_AND_ORGANIZATION(#48,#49);
#51=PERSON_AND_ORGANIZATION_ROLE('creator');
#52=CC_DESIGN_PERSON_AND_ORGANIZATION_ASSIGNMENT(#50,#51,(#28,#1));
#53=ADVANCED_FACE('',(#89,#91),#93,.F.);
#54=COLOUR_RGB('',0.564705882352941,0.564705882352941,0.564705882352941);
#55=FILL_AREA_STYLE_COLOUR('',#54);
#56=FILL_AREA_STYLE($,(#55));
#57=SURFACE_STYLE_FILL_AREA(#56);
#58=SURFACE_SIDE_STYLE('',(#57));
#59=SURFACE_STYLE_USAGE(.BOTH.,#58);
#60=PRESENTATION_STYLE_ASSIGNMENT((#59));
#61=STYLED_ITEM('',(#60),#53);
#62=ADVANCED_FACE('',(#98,#100),#102,.T.);
#63=COLOUR_RGB('',0.564705882352941,0.564705882352941,0.564705882352941);
#64=FILL_AREA_STYLE_COLOUR('',#63);
#65=FILL_AREA_STYLE($,(#64));
#66=SURFACE_STYLE_FILL_AREA(#65);
#67=SURFACE_SIDE_STYLE('',(#66));
#68=SURFACE_STYLE_USAGE(.BOTH.,#67);
#69=PRESENTATION_STYLE_ASSIGNMENT((#68));
#70=STYLED_ITEM('',(#69),#62);
#71=ADVANCED_FACE('',(#107,#109),#111,.F.);
#72=COLOUR_RGB('',0.564705882352941,0.564705882352941,0.564705882352941);
#73=FILL_AREA_STYLE_COLOUR('',#72);
#74=FILL_AREA_STYLE($,(#73));
#75=SURFACE_STYLE_FILL_AREA(#74);
#76=SURFACE_SIDE_STYLE('',(#75));
#77=SURFACE_STYLE_USAGE(.BOTH.,#76);
#78=PRESENTATION_STYLE_ASSIGNMENT((#77));
#79=STYLED_ITEM('',(#78),#71);
#80=ADVANCED_FACE('',(#116,#118),#120,.T.);
#81=COLOUR_RGB('',0.564705882352941,0.564705882352941,0.564705882352941);
#82=FILL_AREA_STYLE_COLOUR('',#81);
#83=FILL_AREA_STYLE($,(#82));
#84=SURFACE_STYLE_FILL_AREA(#83);
#85=SURFACE_SIDE_STYLE('',(#84));
#86=SURFACE_STYLE_USAGE(.BOTH.,#85);
#87=PRESENTATION_STYLE_ASSIGNMENT((#86));
#88=STYLED_ITEM('',(#87),#80);
#89=FACE_BOUND('',#90,.T.);
#90=EDGE_LOOP('',(#125));
#91=FACE_BOUND('',#92,.T.);
#92=EDGE_LOOP('',(#126));
#93=PLANE('',#94);
#94=AXIS2_PLACEMENT_3D('',#95,#96,#97);
#95=CARTESIAN_POINT('',(0.,0.,0.));
#96=DIRECTION('',(0.,1.,6.12323399573677E-17));
#97=DIRECTION('',(-1.,7.49879891330929E-33,-1.22464679914735E-16));
#98=FACE_BOUND('',#99,.T.);
#99=EDGE_LOOP('',(#127));
#100=FACE_BOUND('',#101,.T.);
#101=EDGE_LOOP('',(#128));
#102=PLANE('',#103);
#103=AXIS2_PLACEMENT_3D('',#104,#105,#106);
#104=CARTESIAN_POINT('',(0.,3.,1.83697019872103E-16));
#105=DIRECTION('',(0.,1.,6.12323399573677E-17));
#106=DIRECTION('',(-1.,7.49879891330929E-33,-1.22464679914735E-16));
#107=FACE_OUTER_BOUND('',#108,.T.);
#108=EDGE_LOOP('',(#129));
#109=FACE_OUTER_BOUND('',#110,.T.);
#110=EDGE_LOOP('',(#130));
#111=CYLINDRICAL_SURFACE('',#112,15.);
#112=AXIS2_PLACEMENT_3D('',#113,#114,#115);
#113=CARTESIAN_POINT('',(0.,0.,0.));
#114=DIRECTION('',(0.,1.,6.12323399573676E-17));
#115=DIRECTION('',(-1.,7.49879891330929E-33,-1.22464679914735E-16));
#116=FACE_OUTER_BOUND('',#117,.T.);
#117=EDGE_LOOP('',(#131));
#118=FACE_OUTER_BOUND('',#119,.T.);
#119=EDGE_LOOP('',(#132));
#120=CYLINDRICAL_SURFACE('',#121,48.);
#121=AXIS2_PLACEMENT_3D('',#122,#123,#124);
#122=CARTESIAN_POINT('',(0.,0.,0.));
#123=DIRECTION('',(0.,1.,6.12323399573676E-17));
#124=DIRECTION('',(-1.,7.49879891330928E-33,-1.22464679914735E-16));
#125=ORIENTED_EDGE('',*,*,#133,.F.);
#126=ORIENTED_EDGE('',*,*,#134,.T.);
#127=ORIENTED_EDGE('',*,*,#135,.T.);
#128=ORIENTED_EDGE('',*,*,#136,.T.);
#129=ORIENTED_EDGE('',*,*,#136,.F.);
#130=ORIENTED_EDGE('',*,*,#134,.F.);
#131=ORIENTED_EDGE('',*,*,#135,.F.);
#132=ORIENTED_EDGE('',*,*,#133,.T.);
#133=EDGE_CURVE('',#137,#137,#138,.T.);
#134=EDGE_CURVE('',#139,#139,#140,.T.);
#135=EDGE_CURVE('',#141,#141,#142,.T.);
#136=EDGE_CURVE('',#143,#143,#144,.F.);
#137=VERTEX_POINT('',#145);
#138=CIRCLE('',#146,48.);
#139=VERTEX_POINT('',#150);
#140=CIRCLE('',#151,15.);
#141=VERTEX_POINT('',#155);
#142=CIRCLE('',#156,48.);
#143=VERTEX_POINT('',#160);
#144=CIRCLE('',#161,15.);
#145=CARTESIAN_POINT('',(-48.,7.19884695677692E-31,-1.17566092718146E-14));
#146=AXIS2_PLACEMENT_3D('',#147,#148,#149);
#147=CARTESIAN_POINT('',(0.,0.,0.));
#148=DIRECTION('',(0.,1.,6.12323399573677E-17));
#149=DIRECTION('',(-1.,7.49879891330929E-33,-1.22464679914735E-16));
#150=CARTESIAN_POINT('',(-15.,2.24963967399279E-31,-3.67394039744206E-15));
#151=AXIS2_PLACEMENT_3D('',#152,#153,#154);
#152=CARTESIAN_POINT('',(0.,0.,0.));
#153=DIRECTION('',(0.,1.,6.12323399573677E-17));
#154=DIRECTION('',(-1.,7.49879891330929E-33,-1.22464679914735E-16));
#155=CARTESIAN_POINT('',(-48.,3.,-1.15729122519425E-14));
#156=AXIS2_PLACEMENT_3D('',#157,#158,#159);
#157=CARTESIAN_POINT('',(0.,3.,1.83697019872103E-16));
#158=DIRECTION('',(0.,1.,6.12323399573677E-17));
#159=DIRECTION('',(-1.,7.49879891330929E-33,-1.22464679914735E-16));
#160=CARTESIAN_POINT('',(-15.,3.,-3.49024337756996E-15));
#161=AXIS2_PLACEMENT_3D('',#162,#163,#164);
#162=CARTESIAN_POINT('',(0.,3.,1.83697019872103E-16));
#163=DIRECTION('',(0.,1.,6.12323399573677E-17));
#164=DIRECTION('',(-1.,7.49879891330929E-33,-1.22464679914735E-16));
ENDSEC;
END-ISO-10303-21;
