ISO-10303-21;
HEADER;
FILE_DESCRIPTION(('STEP AP214'),
    '1');
FILE_NAME('Êîñûíêà',
    '',
    ('UNSPECIFIED'),
    ('UNSPECIFIED'),
    'C3D Converter',
    'C3D Toolkit',
    '');
FILE_SCHEMA(('AUTOMOTIVE_DESIGN { 1 0 10303 214 3 1 1}'));
ENDSEC;

DATA;
#1=PRODUCT_DEFINITION('','UNSPECIFIED',#28,#31);
#2=SHAPE_DEFINITION_REPRESENTATION(#26,#3);
#3=SHAPE_REPRESENTATION('NONE',(#4),#8);
#4=AXIS2_PLACEMENT_3D('',#5,#6,#7);
#5=CARTESIAN_POINT('',(0.,0.,0.));
#6=DIRECTION('',(0.,0.,1.));
#7=DIRECTION('',(1.,0.,0.));
#8=(GEOMETRIC_REPRESENTATION_CONTEXT(3)GLOBAL_UNCERTAINTY_ASSIGNED_CONTEXT((#10))
GLOBAL_UNIT_ASSIGNED_CONTEXT((#9,#11,#12))REPRESENTATION_CONTEXT('NONE','NONE'));
#9=(LENGTH_UNIT()NAMED_UNIT(*)SI_UNIT(.MILLI.,.METRE.));
#10=UNCERTAINTY_MEASURE_WITH_UNIT(LENGTH_MEASURE(1.E-5),#9,'NONE','NONE');
#11=(NAMED_UNIT(*)PLANE_ANGLE_UNIT()SI_UNIT($,.RADIAN.));
#12=(NAMED_UNIT(*)SI_UNIT($,.STERADIAN.)SOLID_ANGLE_UNIT());
#13=MANIFOLD_SOLID_BREP('',#14);
#14=CLOSED_SHELL('',(#53,#62,#71,#80,#89,#98,#107));
#15=COLOUR_RGB('',0.564705882352941,0.564705882352941,0.564705882352941);
#16=FILL_AREA_STYLE_COLOUR('',#15);
#17=FILL_AREA_STYLE($,(#16));
#18=SURFACE_STYLE_FILL_AREA(#17);
#19=SURFACE_SIDE_STYLE('',(#18));
#20=SURFACE_STYLE_USAGE(.BOTH.,#19);
#21=PRESENTATION_STYLE_ASSIGNMENT((#20));
#22=MECHANICAL_DESIGN_GEOMETRIC_PRESENTATION_REPRESENTATION('NONE',(#23,#61,#70,
#79,#88,#97,#106,#115),#8);
#23=STYLED_ITEM('',(#21),#13);
#24=ADVANCED_BREP_SHAPE_REPRESENTATION('NONE',(#13),#8);
#25=SHAPE_REPRESENTATION_RELATIONSHIP('','',#3,#24);
#26=PRODUCT_DEFINITION_SHAPE('NONE','NONE',#1);
#27=MECHANICAL_CONTEXT('NONE',#32,'mechanical');
#28=PRODUCT_DEFINITION_FORMATION_WITH_SPECIFIED_SOURCE('ANY','UNSPECIFIED',#29,.NOT_KNOWN.);
#29=PRODUCT('','\X2\0414043504420430043B044C\X0\','NONE',(#27));
#30=PRODUCT_RELATED_PRODUCT_CATEGORY('detail','',(#29));
#31=DESIGN_CONTEXT('detailed design',#32,'design');
#32=APPLICATION_CONTEXT('configuration controlled 3d designs of mechanical parts and assemblies');
#33=APPLICATION_PROTOCOL_DEFINITION('international standard','config_control_design',
1994,#32);
#34=CC_DESIGN_DATE_AND_TIME_ASSIGNMENT(#35,#39,(#1));
#35=DATE_AND_TIME(#36,#37);
#36=CALENDAR_DATE(0,1,1);
#37=LOCAL_TIME(0,0,0.,#38);
#38=COORDINATED_UNIVERSAL_TIME_OFFSET(0,0,.AHEAD.);
#39=DATE_TIME_ROLE('creation_date');
#40=CC_DESIGN_APPROVAL(#41,(#1));
#41=APPROVAL(#42,'UNSPECIFIED');
#42=APPROVAL_STATUS('not_yet_approved');
#43=APPROVAL_DATE_TIME(#44,#41);
#44=DATE_AND_TIME(#45,#46);
#45=CALENDAR_DATE(0,1,1);
#46=LOCAL_TIME(0,0,0.,#47);
#47=COORDINATED_UNIVERSAL_TIME_OFFSET(0,0,.AHEAD.);
#48=PERSON('UNSPECIFIED','Àíäðåé','UNSPECIFIED',('UNSPECIFIED'),('UNSPECIFIED'),
('UNSPECIFIED'));
#49=ORGANIZATION('UNSPECIFIED','UNSPECIFIED','UNSPECIFIED');
#50=PERSON_AND_ORGANIZATION(#48,#49);
#51=PERSON_AND_ORGANIZATION_ROLE('creator');
#52=CC_DESIGN_PERSON_AND_ORGANIZATION_ASSIGNMENT(#50,#51,(#28,#1));
#53=ADVANCED_FACE('',(#116),#118,.T.);
#54=COLOUR_RGB('',0.564705882352941,0.564705882352941,0.564705882352941);
#55=FILL_AREA_STYLE_COLOUR('',#54);
#56=FILL_AREA_STYLE($,(#55));
#57=SURFACE_STYLE_FILL_AREA(#56);
#58=SURFACE_SIDE_STYLE('',(#57));
#59=SURFACE_STYLE_USAGE(.BOTH.,#58);
#60=PRESENTATION_STYLE_ASSIGNMENT((#59));
#61=STYLED_ITEM('',(#60),#53);
#62=ADVANCED_FACE('',(#123),#125,.T.);
#63=COLOUR_RGB('',0.564705882352941,0.564705882352941,0.564705882352941);
#64=FILL_AREA_STYLE_COLOUR('',#63);
#65=FILL_AREA_STYLE($,(#64));
#66=SURFACE_STYLE_FILL_AREA(#65);
#67=SURFACE_SIDE_STYLE('',(#66));
#68=SURFACE_STYLE_USAGE(.BOTH.,#67);
#69=PRESENTATION_STYLE_ASSIGNMENT((#68));
#70=STYLED_ITEM('',(#69),#62);
#71=ADVANCED_FACE('',(#130),#132,.T.);
#72=COLOUR_RGB('',0.564705882352941,0.564705882352941,0.564705882352941);
#73=FILL_AREA_STYLE_COLOUR('',#72);
#74=FILL_AREA_STYLE($,(#73));
#75=SURFACE_STYLE_FILL_AREA(#74);
#76=SURFACE_SIDE_STYLE('',(#75));
#77=SURFACE_STYLE_USAGE(.BOTH.,#76);
#78=PRESENTATION_STYLE_ASSIGNMENT((#77));
#79=STYLED_ITEM('',(#78),#71);
#80=ADVANCED_FACE('',(#137),#139,.T.);
#81=COLOUR_RGB('',0.564705882352941,0.564705882352941,0.564705882352941);
#82=FILL_AREA_STYLE_COLOUR('',#81);
#83=FILL_AREA_STYLE($,(#82));
#84=SURFACE_STYLE_FILL_AREA(#83);
#85=SURFACE_SIDE_STYLE('',(#84));
#86=SURFACE_STYLE_USAGE(.BOTH.,#85);
#87=PRESENTATION_STYLE_ASSIGNMENT((#86));
#88=STYLED_ITEM('',(#87),#80);
#89=ADVANCED_FACE('',(#144),#146,.T.);
#90=COLOUR_RGB('',0.564705882352941,0.564705882352941,0.564705882352941);
#91=FILL_AREA_STYLE_COLOUR('',#90);
#92=FILL_AREA_STYLE($,(#91));
#93=SURFACE_STYLE_FILL_AREA(#92);
#94=SURFACE_SIDE_STYLE('',(#93));
#95=SURFACE_STYLE_USAGE(.BOTH.,#94);
#96=PRESENTATION_STYLE_ASSIGNMENT((#95));
#97=STYLED_ITEM('',(#96),#89);
#98=ADVANCED_FACE('',(#151),#153,.T.);
#99=COLOUR_RGB('',0.564705882352941,0.564705882352941,0.564705882352941);
#100=FILL_AREA_STYLE_COLOUR('',#99);
#101=FILL_AREA_STYLE($,(#100));
#102=SURFACE_STYLE_FILL_AREA(#101);
#103=SURFACE_SIDE_STYLE('',(#102));
#104=SURFACE_STYLE_USAGE(.BOTH.,#103);
#105=PRESENTATION_STYLE_ASSIGNMENT((#104));
#106=STYLED_ITEM('',(#105),#98);
#107=ADVANCED_FACE('',(#158),#160,.F.);
#108=COLOUR_RGB('',0.564705882352941,0.564705882352941,0.564705882352941);
#109=FILL_AREA_STYLE_COLOUR('',#108);
#110=FILL_AREA_STYLE($,(#109));
#111=SURFACE_STYLE_FILL_AREA(#110);
#112=SURFACE_SIDE_STYLE('',(#111));
#113=SURFACE_STYLE_USAGE(.BOTH.,#112);
#114=PRESENTATION_STYLE_ASSIGNMENT((#113));
#115=STYLED_ITEM('',(#114),#107);
#116=FACE_BOUND('',#117,.T.);
#117=EDGE_LOOP('',(#165,#166,#167,#168));
#118=PLANE('',#119);
#119=AXIS2_PLACEMENT_3D('',#120,#121,#122);
#120=CARTESIAN_POINT('',(-10.,-2.02066721859313E-15,33.));
#121=DIRECTION('',(0.,0.,1.));
#122=DIRECTION('',(1.,0.,0.));
#123=FACE_BOUND('',#124,.T.);
#124=EDGE_LOOP('',(#169,#170,#171,#172));
#125=PLANE('',#126);
#126=AXIS2_PLACEMENT_3D('',#127,#128,#129);
#127=CARTESIAN_POINT('',(-6.0620016557794E-15,-2.02066721859313E-15,33.));
#128=DIRECTION('',(1.,0.,1.83697019872103E-16));
#129=DIRECTION('',(1.83697019872103E-16,6.12323399573677E-17,-1.));
#130=FACE_BOUND('',#131,.T.);
#131=EDGE_LOOP('',(#173,#174,#175,#176));
#132=PLANE('',#133);
#133=AXIS2_PLACEMENT_3D('',#134,#135,#136);
#134=CARTESIAN_POINT('',(0.,0.,0.));
#135=DIRECTION('',(1.22464679914735E-16,6.12323399573676E-17,-1.));
#136=DIRECTION('',(-1.,7.49879891330929E-33,-1.22464679914735E-16));
#137=FACE_BOUND('',#138,.T.);
#138=EDGE_LOOP('',(#177,#178,#179,#180));
#139=PLANE('',#140);
#140=AXIS2_PLACEMENT_3D('',#141,#142,#143);
#141=CARTESIAN_POINT('',(-120.,8.99855869597115E-31,-1.46957615897682E-14));
#142=DIRECTION('',(-1.,0.,0.));
#143=DIRECTION('',(0.,-6.12323399573677E-17,1.));
#144=FACE_BOUND('',#145,.T.);
#145=EDGE_LOOP('',(#181,#182,#183,#184));
#146=PLANE('',#147);
#147=AXIS2_PLACEMENT_3D('',#148,#149,#150);
#148=CARTESIAN_POINT('',(-120.,-3.06161699786837E-16,4.99999999999998));
#149=DIRECTION('',(-0.246679280634931,-2.86910398823579E-16,0.969097173922942));
#150=DIRECTION('',(0.969097173922942,-1.5104749572277E-17,0.246679280634931));
#151=FACE_BOUND('',#152,.T.);
#152=EDGE_LOOP('',(#185,#186,#187,#188,#189));
#153=PLANE('',#154);
#154=AXIS2_PLACEMENT_3D('',#155,#156,#157);
#155=CARTESIAN_POINT('',(0.,3.,1.83697019872103E-16));
#156=DIRECTION('',(0.,1.,6.12323399573677E-17));
#157=DIRECTION('',(-1.,7.49879891330929E-33,-1.22464679914735E-16));
#158=FACE_BOUND('',#159,.T.);
#159=EDGE_LOOP('',(#190,#191,#192,#193,#194));
#160=PLANE('',#161);
#161=AXIS2_PLACEMENT_3D('',#162,#163,#164);
#162=CARTESIAN_POINT('',(0.,0.,0.));
#163=DIRECTION('',(0.,1.,6.12323399573677E-17));
#164=DIRECTION('',(-1.,7.49879891330929E-33,-1.22464679914735E-16));
#165=ORIENTED_EDGE('',*,*,#195,.T.);
#166=ORIENTED_EDGE('',*,*,#196,.T.);
#167=ORIENTED_EDGE('',*,*,#197,.F.);
#168=ORIENTED_EDGE('',*,*,#198,.F.);
#169=ORIENTED_EDGE('',*,*,#199,.T.);
#170=ORIENTED_EDGE('',*,*,#200,.T.);
#171=ORIENTED_EDGE('',*,*,#201,.F.);
#172=ORIENTED_EDGE('',*,*,#196,.F.);
#173=ORIENTED_EDGE('',*,*,#202,.T.);
#174=ORIENTED_EDGE('',*,*,#203,.T.);
#175=ORIENTED_EDGE('',*,*,#204,.F.);
#176=ORIENTED_EDGE('',*,*,#200,.F.);
#177=ORIENTED_EDGE('',*,*,#205,.T.);
#178=ORIENTED_EDGE('',*,*,#206,.T.);
#179=ORIENTED_EDGE('',*,*,#207,.F.);
#180=ORIENTED_EDGE('',*,*,#203,.F.);
#181=ORIENTED_EDGE('',*,*,#208,.T.);
#182=ORIENTED_EDGE('',*,*,#198,.T.);
#183=ORIENTED_EDGE('',*,*,#209,.F.);
#184=ORIENTED_EDGE('',*,*,#206,.F.);
#185=ORIENTED_EDGE('',*,*,#197,.T.);
#186=ORIENTED_EDGE('',*,*,#201,.T.);
#187=ORIENTED_EDGE('',*,*,#204,.T.);
#188=ORIENTED_EDGE('',*,*,#207,.T.);
#189=ORIENTED_EDGE('',*,*,#209,.T.);
#190=ORIENTED_EDGE('',*,*,#208,.F.);
#191=ORIENTED_EDGE('',*,*,#205,.F.);
#192=ORIENTED_EDGE('',*,*,#202,.F.);
#193=ORIENTED_EDGE('',*,*,#199,.F.);
#194=ORIENTED_EDGE('',*,*,#195,.F.);
#195=EDGE_CURVE('',#210,#211,#212,.T.);
#196=EDGE_CURVE('',#211,#213,#214,.T.);
#197=EDGE_CURVE('',#215,#213,#216,.T.);
#198=EDGE_CURVE('',#210,#215,#217,.T.);
#199=EDGE_CURVE('',#211,#218,#219,.T.);
#200=EDGE_CURVE('',#218,#220,#221,.T.);
#201=EDGE_CURVE('',#213,#220,#222,.T.);
#202=EDGE_CURVE('',#218,#223,#224,.T.);
#203=EDGE_CURVE('',#223,#225,#226,.T.);
#204=EDGE_CURVE('',#220,#225,#227,.T.);
#205=EDGE_CURVE('',#223,#228,#229,.T.);
#206=EDGE_CURVE('',#228,#230,#231,.T.);
#207=EDGE_CURVE('',#225,#230,#232,.T.);
#208=EDGE_CURVE('',#228,#210,#233,.T.);
#209=EDGE_CURVE('',#230,#215,#234,.T.);
#210=VERTEX_POINT('',#235);
#211=VERTEX_POINT('',#236);
#212=LINE('',#237,#238);
#213=VERTEX_POINT('',#240);
#214=LINE('',#241,#242);
#215=VERTEX_POINT('',#244);
#216=LINE('',#245,#246);
#217=LINE('',#248,#249);
#218=VERTEX_POINT('',#251);
#219=LINE('',#252,#253);
#220=VERTEX_POINT('',#255);
#221=LINE('',#256,#257);
#222=LINE('',#259,#260);
#223=VERTEX_POINT('',#262);
#224=LINE('',#263,#264);
#225=VERTEX_POINT('',#266);
#226=LINE('',#267,#268);
#227=LINE('',#270,#271);
#228=VERTEX_POINT('',#273);
#229=LINE('',#274,#275);
#230=VERTEX_POINT('',#277);
#231=LINE('',#278,#279);
#232=LINE('',#281,#282);
#233=LINE('',#284,#285);
#234=LINE('',#287,#288);
#235=CARTESIAN_POINT('',(-10.,-2.02066721859313E-15,33.));
#236=CARTESIAN_POINT('',(-6.0620016557794E-15,-2.02066721859313E-15,33.));
#237=CARTESIAN_POINT('',(-10.,-2.02066721859313E-15,33.));
#238=VECTOR('',#239,1.);
#239=DIRECTION('',(1.,0.,0.));
#240=CARTESIAN_POINT('',(-6.0620016557794E-15,3.,33.));
#241=CARTESIAN_POINT('',(-5.69553608699007E-15,-2.02066721859313E-15,33.));
#242=VECTOR('',#243,1.);
#243=DIRECTION('',(0.,1.,0.));
#244=CARTESIAN_POINT('',(-10.,3.,33.));
#245=CARTESIAN_POINT('',(-10.,3.,33.));
#246=VECTOR('',#247,1.);
#247=DIRECTION('',(1.,0.,0.));
#248=CARTESIAN_POINT('',(-10.,-2.02066721859313E-15,33.));
#249=VECTOR('',#250,1.);
#250=DIRECTION('',(0.,1.,0.));
#251=CARTESIAN_POINT('',(0.,0.,0.));
#252=CARTESIAN_POINT('',(-6.0620016557794E-15,-2.02066721859313E-15,33.));
#253=VECTOR('',#254,1.);
#254=DIRECTION('',(1.83697019872103E-16,6.12323399573677E-17,-1.));
#255=CARTESIAN_POINT('',(0.,3.,1.83697019872103E-16));
#256=CARTESIAN_POINT('',(-2.21831598705881E-63,1.97215226305253E-31,1.20759497818924E-47));
#257=VECTOR('',#258,1.);
#258=DIRECTION('',(-5.62409918498196E-33,1.,6.12323399573676E-17));
#259=CARTESIAN_POINT('',(-6.0620016557794E-15,3.,33.));
#260=VECTOR('',#261,1.);
#261=DIRECTION('',(1.83697019872103E-16,6.72862439166761E-17,-1.));
#262=CARTESIAN_POINT('',(-120.,8.99855869597115E-31,-1.46957615897682E-14));
#263=CARTESIAN_POINT('',(0.,0.,0.));
#264=VECTOR('',#265,1.);
#265=DIRECTION('',(-1.,7.49879891330929E-33,-1.22464679914735E-16));
#266=CARTESIAN_POINT('',(-120.,3.,-1.45120645698961E-14));
#267=CARTESIAN_POINT('',(-120.,8.99855869597115E-31,-1.46957615897682E-14));
#268=VECTOR('',#269,1.);
#269=DIRECTION('',(0.,1.,6.12323399573676E-17));
#270=CARTESIAN_POINT('',(0.,3.,1.83697019872103E-16));
#271=VECTOR('',#272,1.);
#272=DIRECTION('',(-1.,0.,-1.22464679914735E-16));
#273=CARTESIAN_POINT('',(-120.,-3.06161699786837E-16,4.99999999999998));
#274=CARTESIAN_POINT('',(-120.,8.99855869597115E-31,-1.46957615897682E-14));
#275=VECTOR('',#276,1.);
#276=DIRECTION('',(0.,-6.12323399573677E-17,1.));
#277=CARTESIAN_POINT('',(-120.,3.,4.99999999999999));
#278=CARTESIAN_POINT('',(-120.,-3.06161699786837E-16,4.99999999999998));
#279=VECTOR('',#280,1.);
#280=DIRECTION('',(0.,1.,2.96059473233375E-16));
#281=CARTESIAN_POINT('',(-120.,3.,-1.45120645698961E-14));
#282=VECTOR('',#283,1.);
#283=DIRECTION('',(0.,-8.88178419700125E-17,1.));
#284=CARTESIAN_POINT('',(-120.,-3.06161699786837E-16,4.99999999999998));
#285=VECTOR('',#286,1.);
#286=DIRECTION('',(0.969097173922942,-1.5104749572277E-17,0.246679280634931));
#287=CARTESIAN_POINT('',(-120.,3.,4.99999999999999));
#288=VECTOR('',#289,1.);
#289=DIRECTION('',(0.969097173922942,-1.56496581176498E-17,0.246679280634931));
ENDSEC;
END-ISO-10303-21;
