ISO-10303-21;
HEADER;
FILE_DESCRIPTION (( 'STEP AP214' ),
    '1' );
FILE_NAME ('ðó÷êà.STEP',
    '2022-09-14T13:18:29',
    ( '' ),
    ( '' ),
    'SwSTEP 2.0',
    'SolidWorks 2021',
    '' );
FILE_SCHEMA (( 'AUTOMOTIVE_DESIGN' ));
ENDSEC;

DATA;
#1 = VERTEX_POINT ( 'NONE', #201 ) ;
#2 = ORIENTED_EDGE ( 'NONE', *, *, #97, .F. ) ;
#3 = CARTESIAN_POINT ( 'NONE',  ( 0.000000000000000000, 8.000000000000000000, -5.000000000000005329 ) ) ;
#4 = CARTESIAN_POINT ( 'NONE',  ( 0.000000000000000000, -3.061616997868374267E-16, 0.000000000000000000 ) ) ;
#5 = DIRECTION ( 'NONE',  ( -0.000000000000000000, -1.000000000000000000, -0.000000000000000000 ) ) ;
#6 = FACE_OUTER_BOUND ( 'NONE', #85, .T. ) ;
#7 = DIRECTION ( 'NONE',  ( 0.000000000000000000, 0.000000000000000000, -1.000000000000000000 ) ) ;
#8 =( GEOMETRIC_REPRESENTATION_CONTEXT ( 3 ) GLOBAL_UNCERTAINTY_ASSIGNED_CONTEXT ( ( #133 ) ) GLOBAL_UNIT_ASSIGNED_CONTEXT ( ( #81, #112, #152 ) ) REPRESENTATION_CONTEXT ( 'NONE', 'WORKASPACE' ) );
#9 = SURFACE_STYLE_FILL_AREA ( #179 ) ;
#10 =( NAMED_UNIT ( * ) SI_UNIT ( $, .STERADIAN. ) SOLID_ANGLE_UNIT ( ) );
#11 = EDGE_LOOP ( 'NONE', ( #64, #154, #191, #31 ) ) ;
#12 = DIRECTION ( 'NONE',  ( -0.000000000000000000, -1.000000000000000000, -0.000000000000000000 ) ) ;
#13 = EDGE_CURVE ( 'NONE', #110, #170, #130, .T. ) ;
#14 = DIRECTION ( 'NONE',  ( 1.000000000000000000, 0.000000000000000000, 0.000000000000000000 ) ) ;
#15 = ORIENTED_EDGE ( 'NONE', *, *, #82, .F. ) ;
#16 = AXIS2_PLACEMENT_3D ( 'NONE', #174, #134, #214 ) ;
#17 = CIRCLE ( 'NONE', #61, 5.000000000000005329 ) ;
#18 = ORIENTED_EDGE ( 'NONE', *, *, #118, .F. ) ;
#19 = EDGE_CURVE ( 'NONE', #196, #125, #43, .T. ) ;
#20 = CARTESIAN_POINT ( 'NONE',  ( 3.061616997868390537E-16, -3.061616997868374267E-16, 2.500000000000006217 ) ) ;
#21 = CARTESIAN_POINT ( 'NONE',  ( 6.123233995736773185E-16, 8.000000000000000000, 5.000000000000005329 ) ) ;
#22 = CIRCLE ( 'NONE', #207, 2.500000000000006217 ) ;
#23 = CARTESIAN_POINT ( 'NONE',  ( 3.061616997868390044E-16, 0.000000000000000000, 2.500000000000005773 ) ) ;
#24 = CARTESIAN_POINT ( 'NONE',  ( 0.000000000000000000, 8.000000000000000000, 0.000000000000000000 ) ) ;
#25 = VERTEX_POINT ( 'NONE', #26 ) ;
#26 = CARTESIAN_POINT ( 'NONE',  ( 0.000000000000000000, -3.061616997868374267E-16, -2.500000000000006217 ) ) ;
#27 = AXIS2_PLACEMENT_3D ( 'NONE', #210, #5, #104 ) ;
#28 = FILL_AREA_STYLE ('',( #109 ) ) ;
#29 = PRODUCT_RELATED_PRODUCT_CATEGORY ( 'part', '', ( #48 ) ) ;
#30 = MANIFOLD_SOLID_BREP ( 'Ïîâåðíóòü1', #54 ) ;
#31 = ORIENTED_EDGE ( 'NONE', *, *, #59, .F. ) ;
#32 = VECTOR ( 'NONE', #160, 1000.000000000000000 ) ;
#33 = FACE_BOUND ( 'NONE', #215, .T. ) ;
#34 = DIRECTION ( 'NONE',  ( 0.000000000000000000, 1.000000000000000000, 0.000000000000000000 ) ) ;
#35 = DIRECTION ( 'NONE',  ( 0.000000000000000000, 0.000000000000000000, -1.000000000000000000 ) ) ;
#36 = ORIENTED_EDGE ( 'NONE', *, *, #59, .T. ) ;
#37 = DIRECTION ( 'NONE',  ( -0.000000000000000000, -1.000000000000000000, -0.000000000000000000 ) ) ;
#38 = DIRECTION ( 'NONE',  ( 0.000000000000000000, 0.000000000000000000, -1.000000000000000000 ) ) ;
#39 =( NAMED_UNIT ( * ) PLANE_ANGLE_UNIT ( ) SI_UNIT ( $, .RADIAN. ) );
#40 = CIRCLE ( 'NONE', #162, 5.000000000000005329 ) ;
#41 = ADVANCED_FACE ( 'NONE', ( #47 ), #93, .T. ) ;
#42 = EDGE_LOOP ( 'NONE', ( #78, #181, #165, #129 ) ) ;
#43 = LINE ( 'NONE', #76, #99 ) ;
#44 = DIRECTION ( 'NONE',  ( 0.000000000000000000, 0.000000000000000000, 1.000000000000000000 ) ) ;
#45 = CIRCLE ( 'NONE', #135, 2.500000000000005329 ) ;
#46 = ORIENTED_EDGE ( 'NONE', *, *, #155, .T. ) ;
#47 = FACE_OUTER_BOUND ( 'NONE', #11, .T. ) ;
#48 = PRODUCT ( 'ðó÷êà', 'ðó÷êà', '', ( #216 ) ) ;
#49 = ADVANCED_FACE ( 'NONE', ( #149 ), #220, .T. ) ;
#50 = SURFACE_SIDE_STYLE ('',( #203 ) ) ;
#51 = AXIS2_PLACEMENT_3D ( 'NONE', #114, #190, #136 ) ;
#52 = UNCERTAINTY_MEASURE_WITH_UNIT (LENGTH_MEASURE( 1.000000000000000082E-05 ), #63, 'distance_accuracy_value', 'NONE');
#53 = DIRECTION ( 'NONE',  ( 0.000000000000000000, -1.000000000000000000, -0.000000000000000000 ) ) ;
#54 = CLOSED_SHELL ( 'NONE', ( #185, #151, #218, #80, #49, #213, #41 ) ) ;
#55 = CYLINDRICAL_SURFACE ( 'NONE', #27, 5.000000000000002665 ) ;
#56 = DIRECTION ( 'NONE',  ( -0.000000000000000000, -1.000000000000000000, -0.000000000000000000 ) ) ;
#57 = DIRECTION ( 'NONE',  ( -0.000000000000000000, -1.000000000000000000, -0.000000000000000000 ) ) ;
#58 = DIRECTION ( 'NONE',  ( 0.000000000000000000, 0.000000000000000000, -1.000000000000000000 ) ) ;
#59 = EDGE_CURVE ( 'NONE', #217, #25, #22, .T. ) ;
#60 = EDGE_LOOP ( 'NONE', ( #199, #74 ) ) ;
#61 = AXIS2_PLACEMENT_3D ( 'NONE', #161, #121, #7 ) ;
#62 = CARTESIAN_POINT ( 'NONE',  ( 6.123233995736770227E-16, 0.000000000000000000, 5.000000000000002665 ) ) ;
#63 =( LENGTH_UNIT ( ) NAMED_UNIT ( * ) SI_UNIT ( .MILLI., .METRE. ) );
#64 = ORIENTED_EDGE ( 'NONE', *, *, #119, .F. ) ;
#65 = AXIS2_PLACEMENT_3D ( 'NONE', #159, #176, #83 ) ;
#66 = EDGE_LOOP ( 'NONE', ( #91, #46 ) ) ;
#67 = FACE_OUTER_BOUND ( 'NONE', #137, .T. ) ;
#68 = CARTESIAN_POINT ( 'NONE',  ( 3.061616997868389551E-16, 8.000000000000000000, 2.500000000000005329 ) ) ;
#69 = DIRECTION ( 'NONE',  ( -0.000000000000000000, -1.000000000000000000, -0.000000000000000000 ) ) ;
#70 = PRODUCT_DEFINITION ( 'UNKNOWN', '', #204, #182 ) ;
#71 = DIRECTION ( 'NONE',  ( 0.000000000000000000, 0.000000000000000000, -1.000000000000000000 ) ) ;
#72 = PLANE ( 'NONE',  #186 ) ;
#73 = VECTOR ( 'NONE', #157, 1000.000000000000000 ) ;
#74 = ORIENTED_EDGE ( 'NONE', *, *, #131, .F. ) ;
#75 = SURFACE_SIDE_STYLE ('',( #9 ) ) ;
#76 = CARTESIAN_POINT ( 'NONE',  ( 0.000000000000000000, 0.000000000000000000, -5.000000000000002665 ) ) ;
#77 = FILL_AREA_STYLE_COLOUR ( '', #212 ) ;
#78 = ORIENTED_EDGE ( 'NONE', *, *, #13, .F. ) ;
#79 = AXIS2_PLACEMENT_3D ( 'NONE', #111, #150, #184 ) ;
#80 = ADVANCED_FACE ( 'NONE', ( #105 ), #173, .T. ) ;
#81 =( LENGTH_UNIT ( ) NAMED_UNIT ( * ) SI_UNIT ( .MILLI., .METRE. ) );
#82 = EDGE_CURVE ( 'NONE', #1, #183, #45, .T. ) ;
#83 = DIRECTION ( 'NONE',  ( 0.000000000000000000, 0.000000000000000000, -1.000000000000000000 ) ) ;
#84 = DIRECTION ( 'NONE',  ( 0.000000000000000000, 0.000000000000000000, -1.000000000000000000 ) ) ;
#85 = EDGE_LOOP ( 'NONE', ( #167, #108, #144, #168 ) ) ;
#86 = DIRECTION ( 'NONE',  ( -0.000000000000000000, -1.000000000000000000, -0.000000000000000000 ) ) ;
#87 = LINE ( 'NONE', #23, #32 ) ;
#88 = LINE ( 'NONE', #102, #73 ) ;
#89 = CIRCLE ( 'NONE', #98, 5.000000000000000000 ) ;
#90 = APPLICATION_PROTOCOL_DEFINITION ( 'draft international standard', 'automotive_design', 1998, #142 ) ;
#91 = ORIENTED_EDGE ( 'NONE', *, *, #189, .T. ) ;
#92 = SHAPE_DEFINITION_REPRESENTATION ( #115, #202 ) ;
#93 = CYLINDRICAL_SURFACE ( 'NONE', #79, 2.500000000000005773 ) ;
#94 = EDGE_CURVE ( 'NONE', #1, #25, #88, .T. ) ;
#95 = AXIS2_PLACEMENT_3D ( 'NONE', #193, #57, #194 ) ;
#96 = UNCERTAINTY_MEASURE_WITH_UNIT (LENGTH_MEASURE( 1.000000000000000082E-05 ), #126, 'distance_accuracy_value', 'NONE');
#97 = EDGE_CURVE ( 'NONE', #25, #217, #192, .T. ) ;
#98 = AXIS2_PLACEMENT_3D ( 'NONE', #211, #56, #71 ) ;
#99 = VECTOR ( 'NONE', #128, 1000.000000000000000 ) ;
#100 = CARTESIAN_POINT ( 'NONE',  ( 2.500000000000005329, 8.000000000000000000, 0.000000000000000000 ) ) ;
#101 = CARTESIAN_POINT ( 'NONE',  ( 0.000000000000000000, 8.000000000000000000, 0.000000000000000000 ) ) ;
#102 = CARTESIAN_POINT ( 'NONE',  ( 0.000000000000000000, 0.000000000000000000, -2.500000000000005773 ) ) ;
#103 = AXIS2_PLACEMENT_3D ( 'NONE', #4, #69, #140 ) ;
#104 = DIRECTION ( 'NONE',  ( 0.000000000000000000, 0.000000000000000000, -1.000000000000000000 ) ) ;
#105 = FACE_OUTER_BOUND ( 'NONE', #60, .T. ) ;
#106 = ORIENTED_EDGE ( 'NONE', *, *, #94, .F. ) ;
#107 = AXIS2_PLACEMENT_3D ( 'NONE', #138, #34, #178 ) ;
#108 = ORIENTED_EDGE ( 'NONE', *, *, #13, .T. ) ;
#109 = FILL_AREA_STYLE_COLOUR ( '', #175 ) ;
#110 = VERTEX_POINT ( 'NONE', #208 ) ;
#111 = CARTESIAN_POINT ( 'NONE',  ( 0.000000000000000000, 0.000000000000000000, 0.000000000000000000 ) ) ;
#112 =( NAMED_UNIT ( * ) PLANE_ANGLE_UNIT ( ) SI_UNIT ( $, .RADIAN. ) );
#113 = PRESENTATION_LAYER_ASSIGNMENT (  '', '', ( #219 ) ) ;
#114 = CARTESIAN_POINT ( 'NONE',  ( 0.000000000000000000, 0.000000000000000000, 0.000000000000000000 ) ) ;
#115 = PRODUCT_DEFINITION_SHAPE ( 'NONE', 'NONE',  #70 ) ;
#116 = FACE_OUTER_BOUND ( 'NONE', #127, .T. ) ;
#117 = AXIS2_PLACEMENT_3D ( 'NONE', #195, #44, #14 ) ;
#118 = EDGE_CURVE ( 'NONE', #183, #1, #205, .T. ) ;
#119 = EDGE_CURVE ( 'NONE', #183, #217, #87, .T. ) ;
#120 = CARTESIAN_POINT ( 'NONE',  ( 2.500000000000006217, -1.530808498934187133E-16, 0.000000000000000000 ) ) ;
#121 = DIRECTION ( 'NONE',  ( -0.000000000000000000, -1.000000000000000000, -0.000000000000000000 ) ) ;
#122 = DIRECTION ( 'NONE',  ( 0.000000000000000000, 0.000000000000000000, -1.000000000000000000 ) ) ;
#123 = FACE_OUTER_BOUND ( 'NONE', #66, .T. ) ;
#124 = SURFACE_STYLE_USAGE ( .BOTH. , #75 ) ;
#125 = VERTEX_POINT ( 'NONE', #3 ) ;
#126 =( LENGTH_UNIT ( ) NAMED_UNIT ( * ) SI_UNIT ( .MILLI., .METRE. ) );
#127 = EDGE_LOOP ( 'NONE', ( #209, #200, #2, #106 ) ) ;
#128 = DIRECTION ( 'NONE',  ( -0.000000000000000000, -1.000000000000000000, -0.000000000000000000 ) ) ;
#129 = ORIENTED_EDGE ( 'NONE', *, *, #155, .F. ) ;
#130 = LINE ( 'NONE', #62, #148 ) ;
#131 = EDGE_CURVE ( 'NONE', #110, #196, #158, .T. ) ;
#132 =( GEOMETRIC_REPRESENTATION_CONTEXT ( 3 ) GLOBAL_UNCERTAINTY_ASSIGNED_CONTEXT ( ( #96 ) ) GLOBAL_UNIT_ASSIGNED_CONTEXT ( ( #126, #39, #10 ) ) REPRESENTATION_CONTEXT ( 'NONE', 'WORKASPACE' ) );
#133 = UNCERTAINTY_MEASURE_WITH_UNIT (LENGTH_MEASURE( 1.000000000000000082E-05 ), #81, 'distance_accuracy_value', 'NONE');
#134 = DIRECTION ( 'NONE',  ( -0.000000000000000000, -1.000000000000000000, -0.000000000000000000 ) ) ;
#135 = AXIS2_PLACEMENT_3D ( 'NONE', #101, #177, #122 ) ;
#136 = DIRECTION ( 'NONE',  ( 0.000000000000000000, 0.000000000000000000, -1.000000000000000000 ) ) ;
#137 = EDGE_LOOP ( 'NONE', ( #146, #36 ) ) ;
#138 = CARTESIAN_POINT ( 'NONE',  ( 2.500000000000000000, 50.00000000000000000, 0.000000000000000000 ) ) ;
#139 = CYLINDRICAL_SURFACE ( 'NONE', #95, 2.500000000000005773 ) ;
#140 = DIRECTION ( 'NONE',  ( 0.000000000000000000, 0.000000000000000000, -1.000000000000000000 ) ) ;
#141 = MECHANICAL_DESIGN_GEOMETRIC_PRESENTATION_REPRESENTATION (  '', ( #219 ), #171 ) ;
#142 = APPLICATION_CONTEXT ( 'automotive_design' ) ;
#143 =( NAMED_UNIT ( * ) SI_UNIT ( $, .STERADIAN. ) SOLID_ANGLE_UNIT ( ) );
#144 = ORIENTED_EDGE ( 'NONE', *, *, #189, .F. ) ;
#145 =( NAMED_UNIT ( * ) PLANE_ANGLE_UNIT ( ) SI_UNIT ( $, .RADIAN. ) );
#146 = ORIENTED_EDGE ( 'NONE', *, *, #97, .T. ) ;
#147 = PRESENTATION_STYLE_ASSIGNMENT (( #172 ) ) ;
#148 = VECTOR ( 'NONE', #12, 1000.000000000000000 ) ;
#149 = FACE_OUTER_BOUND ( 'NONE', #42, .T. ) ;
#150 = DIRECTION ( 'NONE',  ( -0.000000000000000000, -1.000000000000000000, -0.000000000000000000 ) ) ;
#151 = ADVANCED_FACE ( 'NONE', ( #6 ), #55, .T. ) ;
#152 =( NAMED_UNIT ( * ) SI_UNIT ( $, .STERADIAN. ) SOLID_ANGLE_UNIT ( ) );
#153 = AXIS2_PLACEMENT_3D ( 'NONE', #120, #53, #84 ) ;
#154 = ORIENTED_EDGE ( 'NONE', *, *, #118, .T. ) ;
#155 = EDGE_CURVE ( 'NONE', #170, #125, #40, .T. ) ;
#156 = DIRECTION ( 'NONE',  ( 0.000000000000000000, -1.000000000000000000, -0.000000000000000000 ) ) ;
#157 = DIRECTION ( 'NONE',  ( -0.000000000000000000, -1.000000000000000000, -0.000000000000000000 ) ) ;
#158 = CIRCLE ( 'NONE', #16, 5.000000000000000000 ) ;
#159 = CARTESIAN_POINT ( 'NONE',  ( 0.000000000000000000, 8.000000000000000000, 0.000000000000000000 ) ) ;
#160 = DIRECTION ( 'NONE',  ( -0.000000000000000000, -1.000000000000000000, -0.000000000000000000 ) ) ;
#161 = CARTESIAN_POINT ( 'NONE',  ( 0.000000000000000000, 8.000000000000000000, 0.000000000000000000 ) ) ;
#162 = AXIS2_PLACEMENT_3D ( 'NONE', #24, #37, #58 ) ;
#163 = EDGE_CURVE ( 'NONE', #196, #110, #89, .T. ) ;
#164 = APPLICATION_PROTOCOL_DEFINITION ( 'draft international standard', 'automotive_design', 1998, #166 ) ;
#165 = ORIENTED_EDGE ( 'NONE', *, *, #19, .T. ) ;
#166 = APPLICATION_CONTEXT ( 'automotive_design' ) ;
#167 = ORIENTED_EDGE ( 'NONE', *, *, #163, .T. ) ;
#168 = ORIENTED_EDGE ( 'NONE', *, *, #19, .F. ) ;
#169 = PRESENTATION_LAYER_ASSIGNMENT (  '', '', ( #180 ) ) ;
#170 = VERTEX_POINT ( 'NONE', #21 ) ;
#171 =( GEOMETRIC_REPRESENTATION_CONTEXT ( 3 ) GLOBAL_UNCERTAINTY_ASSIGNED_CONTEXT ( ( #52 ) ) GLOBAL_UNIT_ASSIGNED_CONTEXT ( ( #63, #145, #143 ) ) REPRESENTATION_CONTEXT ( 'NONE', 'WORKASPACE' ) );
#172 = SURFACE_STYLE_USAGE ( .BOTH. , #50 ) ;
#173 = PLANE ( 'NONE',  #107 ) ;
#174 = CARTESIAN_POINT ( 'NONE',  ( 0.000000000000000000, 50.00000000000000000, 0.000000000000000000 ) ) ;
#175 = COLOUR_RGB ( '',0.5294117647058823595, 0.5490196078431373028, 0.5490196078431373028 ) ;
#176 = DIRECTION ( 'NONE',  ( -0.000000000000000000, -1.000000000000000000, -0.000000000000000000 ) ) ;
#177 = DIRECTION ( 'NONE',  ( -0.000000000000000000, -1.000000000000000000, -0.000000000000000000 ) ) ;
#178 = DIRECTION ( 'NONE',  ( 0.000000000000000000, -0.000000000000000000, 1.000000000000000000 ) ) ;
#179 = FILL_AREA_STYLE ('',( #77 ) ) ;
#180 = STYLED_ITEM ( 'NONE', ( #147 ), #30 ) ;
#181 = ORIENTED_EDGE ( 'NONE', *, *, #131, .T. ) ;
#182 = PRODUCT_DEFINITION_CONTEXT ( 'detailed design', #166, 'design' ) ;
#183 = VERTEX_POINT ( 'NONE', #68 ) ;
#184 = DIRECTION ( 'NONE',  ( 0.000000000000000000, 0.000000000000000000, -1.000000000000000000 ) ) ;
#185 = ADVANCED_FACE ( 'NONE', ( #116 ), #139, .T. ) ;
#186 = AXIS2_PLACEMENT_3D ( 'NONE', #100, #156, #38 ) ;
#187 = CARTESIAN_POINT ( 'NONE',  ( 0.000000000000000000, 50.00000000000000000, -5.000000000000000000 ) ) ;
#188 = CARTESIAN_POINT ( 'NONE',  ( 0.000000000000000000, -3.061616997868374267E-16, 0.000000000000000000 ) ) ;
#189 = EDGE_CURVE ( 'NONE', #125, #170, #17, .T. ) ;
#190 = DIRECTION ( 'NONE',  ( -0.000000000000000000, -1.000000000000000000, -0.000000000000000000 ) ) ;
#191 = ORIENTED_EDGE ( 'NONE', *, *, #94, .T. ) ;
#192 = CIRCLE ( 'NONE', #103, 2.500000000000006217 ) ;
#193 = CARTESIAN_POINT ( 'NONE',  ( 0.000000000000000000, 0.000000000000000000, 0.000000000000000000 ) ) ;
#194 = DIRECTION ( 'NONE',  ( 0.000000000000000000, 0.000000000000000000, -1.000000000000000000 ) ) ;
#195 = CARTESIAN_POINT ( 'NONE',  ( 0.000000000000000000, 0.000000000000000000, 0.000000000000000000 ) ) ;
#196 = VERTEX_POINT ( 'NONE', #187 ) ;
#197 = PRESENTATION_STYLE_ASSIGNMENT (( #124 ) ) ;
#198 = MECHANICAL_DESIGN_GEOMETRIC_PRESENTATION_REPRESENTATION (  '', ( #180 ), #8 ) ;
#199 = ORIENTED_EDGE ( 'NONE', *, *, #163, .F. ) ;
#200 = ORIENTED_EDGE ( 'NONE', *, *, #119, .T. ) ;
#201 = CARTESIAN_POINT ( 'NONE',  ( 0.000000000000000000, 8.000000000000000000, -2.500000000000005329 ) ) ;
#202 = ADVANCED_BREP_SHAPE_REPRESENTATION ( '¨º¢úð', ( #30, #117 ), #132 ) ;
#203 = SURFACE_STYLE_FILL_AREA ( #28 ) ;
#204 = PRODUCT_DEFINITION_FORMATION_WITH_SPECIFIED_SOURCE ( 'ANY', '', #48, .NOT_KNOWN. ) ;
#205 = CIRCLE ( 'NONE', #65, 2.500000000000005329 ) ;
#206 = PLANE ( 'NONE',  #153 ) ;
#207 = AXIS2_PLACEMENT_3D ( 'NONE', #188, #86, #35 ) ;
#208 = CARTESIAN_POINT ( 'NONE',  ( 6.123233995736769241E-16, 50.00000000000000000, 5.000000000000000000 ) ) ;
#209 = ORIENTED_EDGE ( 'NONE', *, *, #82, .T. ) ;
#210 = CARTESIAN_POINT ( 'NONE',  ( 0.000000000000000000, 0.000000000000000000, 0.000000000000000000 ) ) ;
#211 = CARTESIAN_POINT ( 'NONE',  ( 0.000000000000000000, 50.00000000000000000, 0.000000000000000000 ) ) ;
#212 = COLOUR_RGB ( '',0.5294117647058823595, 0.5490196078431373028, 0.5490196078431373028 ) ;
#213 = ADVANCED_FACE ( 'NONE', ( #123, #33 ), #72, .T. ) ;
#214 = DIRECTION ( 'NONE',  ( 0.000000000000000000, 0.000000000000000000, -1.000000000000000000 ) ) ;
#215 = EDGE_LOOP ( 'NONE', ( #15, #18 ) ) ;
#216 = PRODUCT_CONTEXT ( 'NONE', #142, 'mechanical' ) ;
#217 = VERTEX_POINT ( 'NONE', #20 ) ;
#218 = ADVANCED_FACE ( 'NONE', ( #67 ), #206, .T. ) ;
#219 = STYLED_ITEM ( 'NONE', ( #197 ), #202 ) ;
#220 = CYLINDRICAL_SURFACE ( 'NONE', #51, 5.000000000000002665 ) ;
ENDSEC;
END-ISO-10303-21;
