ISO-10303-21;
HEADER;
FILE_DESCRIPTION(('STEP AP214'),
    '1');
FILE_NAME('Êðåïåæíàÿ ïëàñòèíà',
    '',
    ('UNSPECIFIED'),
    ('UNSPECIFIED'),
    'ASCON STEP Converter 1.6',
    'ASCON Math Kernel',
    '');
FILE_SCHEMA(('AUTOMOTIVE_DESIGN { 1 0 10303 214 3 1 1}'));
ENDSEC;

DATA;
#1=SHAPE_REPRESENTATION('NONE',(#2),#6);
#2=AXIS2_PLACEMENT_3D('',#3,#4,#5);
#3=CARTESIAN_POINT('',(0.,0.,0.));
#4=DIRECTION('',(0.,0.,1.));
#5=DIRECTION('',(1.,0.,0.));
#6=(GEOMETRIC_REPRESENTATION_CONTEXT(3)GLOBAL_UNCERTAINTY_ASSIGNED_CONTEXT((#8))
GLOBAL_UNIT_ASSIGNED_CONTEXT((#7,#9,#10))REPRESENTATION_CONTEXT('NONE','NONE'));
#7=(LENGTH_UNIT()NAMED_UNIT(*)SI_UNIT(.MILLI.,.METRE.));
#8=UNCERTAINTY_MEASURE_WITH_UNIT(LENGTH_MEASURE(1.E-005),#7,'NONE','NONE');
#9=(NAMED_UNIT(*)PLANE_ANGLE_UNIT()SI_UNIT($,.RADIAN.));
#10=(NAMED_UNIT(*)SI_UNIT($,.STERADIAN.)SOLID_ANGLE_UNIT());
#11=SHAPE_DEFINITION_REPRESENTATION(#12,#1);
#12=PRODUCT_DEFINITION_SHAPE('NONE','NONE',#13);
#13=PRODUCT_DEFINITION('','UNSPECIFIED',#14,#22);
#14=PRODUCT_DEFINITION_FORMATION_WITH_SPECIFIED_SOURCE('ANY','UNSPECIFIED',#15,.NOT_KNOWN.);
#15=PRODUCT('','Êðåïåæíàÿ  ïëàñòèíà','NONE',(#25));
#16=PERSON('UNSPECIFIED','Äìèòðèé','UNSPECIFIED',('UNSPECIFIED'),('UNSPECIFIED'),
('UNSPECIFIED'));
#17=ORGANIZATION('UNSPECIFIED','Zzz','UNSPECIFIED');
#18=PERSON_AND_ORGANIZATION(#16,#17);
#19=PERSON_AND_ORGANIZATION_ROLE('design_owner');
#20=CC_DESIGN_PERSON_AND_ORGANIZATION_ASSIGNMENT(#18,#19,(#15));
#21=PRODUCT_RELATED_PRODUCT_CATEGORY('detail','',(#15));
#22=DESIGN_CONTEXT('detailed design',#23,'design');
#23=APPLICATION_CONTEXT('configuration controlled 3d designs of mechanical parts and assemblies');
#24=APPLICATION_PROTOCOL_DEFINITION('international standard','automotive_design',
2011,#23);
#25=MECHANICAL_CONTEXT('NONE',#23,'mechanical');
#26=CC_DESIGN_DATE_AND_TIME_ASSIGNMENT(#27,#31,(#13));
#27=DATE_AND_TIME(#28,#29);
#28=CALENDAR_DATE(0,1,1);
#29=LOCAL_TIME(0,0,0.,#30);
#30=COORDINATED_UNIVERSAL_TIME_OFFSET(0,0,.AHEAD.);
#31=DATE_TIME_ROLE('creation_date');
#32=CC_DESIGN_APPROVAL(#33,(#13));
#33=APPROVAL(#34,'UNSPECIFIED');
#34=APPROVAL_STATUS('not_yet_approved');
#35=APPROVAL_DATE_TIME(#36,#33);
#36=DATE_AND_TIME(#37,#38);
#37=CALENDAR_DATE(0,1,1);
#38=LOCAL_TIME(0,0,0.,#39);
#39=COORDINATED_UNIVERSAL_TIME_OFFSET(0,0,.AHEAD.);
#40=DERIVED_UNIT((#44,#41));
#41=DERIVED_UNIT_ELEMENT(#42,-1.);
#42=VOLUME_UNIT(#43);
#43=DIMENSIONAL_EXPONENTS(3.,0.,0.,0.,0.,0.,0.);
#44=(NAMED_UNIT($)MASS_UNIT()SI_UNIT($,.GRAM.));
#45=MANIFOLD_SOLID_BREP('',#46);
#46=CLOSED_SHELL('',(#58,#67,#76,#85,#94,#103,#112,#121,#130,#139,#148,#157,#166,
#175));
#47=COLOUR_RGB('',0.752941176470588,0.752941176470588,0.752941176470588);
#48=FILL_AREA_STYLE_COLOUR('',#47);
#49=FILL_AREA_STYLE($,(#48));
#50=SURFACE_STYLE_FILL_AREA(#49);
#51=SURFACE_SIDE_STYLE('',(#50));
#52=SURFACE_STYLE_USAGE(.BOTH.,#51);
#53=PRESENTATION_STYLE_ASSIGNMENT((#52));
#54=MECHANICAL_DESIGN_GEOMETRIC_PRESENTATION_REPRESENTATION('NONE',(#55,#66,#75,
#84,#93,#102,#111,#120,#129,#138,#147,#156,#165,#174,#183),#6);
#55=STYLED_ITEM('',(#53),#45);
#56=ADVANCED_BREP_SHAPE_REPRESENTATION('NONE',(#45),#6);
#57=SHAPE_REPRESENTATION_RELATIONSHIP('','',#1,#56);
#58=ADVANCED_FACE('',(#184,#186,#188,#190,#192),#194,.F.);
#59=COLOUR_RGB('',0.752941176470588,0.752941176470588,0.752941176470588);
#60=FILL_AREA_STYLE_COLOUR('',#59);
#61=FILL_AREA_STYLE($,(#60));
#62=SURFACE_STYLE_FILL_AREA(#61);
#63=SURFACE_SIDE_STYLE('',(#62));
#64=SURFACE_STYLE_USAGE(.BOTH.,#63);
#65=PRESENTATION_STYLE_ASSIGNMENT((#64));
#66=STYLED_ITEM('',(#65),#58);
#67=ADVANCED_FACE('',(#199,#201,#203,#205,#207),#209,.T.);
#68=COLOUR_RGB('',0.752941176470588,0.752941176470588,0.752941176470588);
#69=FILL_AREA_STYLE_COLOUR('',#68);
#70=FILL_AREA_STYLE($,(#69));
#71=SURFACE_STYLE_FILL_AREA(#70);
#72=SURFACE_SIDE_STYLE('',(#71));
#73=SURFACE_STYLE_USAGE(.BOTH.,#72);
#74=PRESENTATION_STYLE_ASSIGNMENT((#73));
#75=STYLED_ITEM('',(#74),#67);
#76=ADVANCED_FACE('',(#214,#216),#218,.F.);
#77=COLOUR_RGB('',0.752941176470588,0.752941176470588,0.752941176470588);
#78=FILL_AREA_STYLE_COLOUR('',#77);
#79=FILL_AREA_STYLE($,(#78));
#80=SURFACE_STYLE_FILL_AREA(#79);
#81=SURFACE_SIDE_STYLE('',(#80));
#82=SURFACE_STYLE_USAGE(.BOTH.,#81);
#83=PRESENTATION_STYLE_ASSIGNMENT((#82));
#84=STYLED_ITEM('',(#83),#76);
#85=ADVANCED_FACE('',(#223,#225),#227,.F.);
#86=COLOUR_RGB('',0.752941176470588,0.752941176470588,0.752941176470588);
#87=FILL_AREA_STYLE_COLOUR('',#86);
#88=FILL_AREA_STYLE($,(#87));
#89=SURFACE_STYLE_FILL_AREA(#88);
#90=SURFACE_SIDE_STYLE('',(#89));
#91=SURFACE_STYLE_USAGE(.BOTH.,#90);
#92=PRESENTATION_STYLE_ASSIGNMENT((#91));
#93=STYLED_ITEM('',(#92),#85);
#94=ADVANCED_FACE('',(#232,#234),#236,.F.);
#95=COLOUR_RGB('',0.752941176470588,0.752941176470588,0.752941176470588);
#96=FILL_AREA_STYLE_COLOUR('',#95);
#97=FILL_AREA_STYLE($,(#96));
#98=SURFACE_STYLE_FILL_AREA(#97);
#99=SURFACE_SIDE_STYLE('',(#98));
#100=SURFACE_STYLE_USAGE(.BOTH.,#99);
#101=PRESENTATION_STYLE_ASSIGNMENT((#100));
#102=STYLED_ITEM('',(#101),#94);
#103=ADVANCED_FACE('',(#241,#243),#245,.F.);
#104=COLOUR_RGB('',0.752941176470588,0.752941176470588,0.752941176470588);
#105=FILL_AREA_STYLE_COLOUR('',#104);
#106=FILL_AREA_STYLE($,(#105));
#107=SURFACE_STYLE_FILL_AREA(#106);
#108=SURFACE_SIDE_STYLE('',(#107));
#109=SURFACE_STYLE_USAGE(.BOTH.,#108);
#110=PRESENTATION_STYLE_ASSIGNMENT((#109));
#111=STYLED_ITEM('',(#110),#103);
#112=ADVANCED_FACE('',(#250),#252,.T.);
#113=COLOUR_RGB('',0.752941176470588,0.752941176470588,0.752941176470588);
#114=FILL_AREA_STYLE_COLOUR('',#113);
#115=FILL_AREA_STYLE($,(#114));
#116=SURFACE_STYLE_FILL_AREA(#115);
#117=SURFACE_SIDE_STYLE('',(#116));
#118=SURFACE_STYLE_USAGE(.BOTH.,#117);
#119=PRESENTATION_STYLE_ASSIGNMENT((#118));
#120=STYLED_ITEM('',(#119),#112);
#121=ADVANCED_FACE('',(#257),#259,.T.);
#122=COLOUR_RGB('',0.752941176470588,0.752941176470588,0.752941176470588);
#123=FILL_AREA_STYLE_COLOUR('',#122);
#124=FILL_AREA_STYLE($,(#123));
#125=SURFACE_STYLE_FILL_AREA(#124);
#126=SURFACE_SIDE_STYLE('',(#125));
#127=SURFACE_STYLE_USAGE(.BOTH.,#126);
#128=PRESENTATION_STYLE_ASSIGNMENT((#127));
#129=STYLED_ITEM('',(#128),#121);
#130=ADVANCED_FACE('',(#264),#266,.T.);
#131=COLOUR_RGB('',0.752941176470588,0.752941176470588,0.752941176470588);
#132=FILL_AREA_STYLE_COLOUR('',#131);
#133=FILL_AREA_STYLE($,(#132));
#134=SURFACE_STYLE_FILL_AREA(#133);
#135=SURFACE_SIDE_STYLE('',(#134));
#136=SURFACE_STYLE_USAGE(.BOTH.,#135);
#137=PRESENTATION_STYLE_ASSIGNMENT((#136));
#138=STYLED_ITEM('',(#137),#130);
#139=ADVANCED_FACE('',(#271),#273,.T.);
#140=COLOUR_RGB('',0.752941176470588,0.752941176470588,0.752941176470588);
#141=FILL_AREA_STYLE_COLOUR('',#140);
#142=FILL_AREA_STYLE($,(#141));
#143=SURFACE_STYLE_FILL_AREA(#142);
#144=SURFACE_SIDE_STYLE('',(#143));
#145=SURFACE_STYLE_USAGE(.BOTH.,#144);
#146=PRESENTATION_STYLE_ASSIGNMENT((#145));
#147=STYLED_ITEM('',(#146),#139);
#148=ADVANCED_FACE('',(#278),#280,.T.);
#149=COLOUR_RGB('',0.752941176470588,0.752941176470588,0.752941176470588);
#150=FILL_AREA_STYLE_COLOUR('',#149);
#151=FILL_AREA_STYLE($,(#150));
#152=SURFACE_STYLE_FILL_AREA(#151);
#153=SURFACE_SIDE_STYLE('',(#152));
#154=SURFACE_STYLE_USAGE(.BOTH.,#153);
#155=PRESENTATION_STYLE_ASSIGNMENT((#154));
#156=STYLED_ITEM('',(#155),#148);
#157=ADVANCED_FACE('',(#285),#287,.T.);
#158=COLOUR_RGB('',0.752941176470588,0.752941176470588,0.752941176470588);
#159=FILL_AREA_STYLE_COLOUR('',#158);
#160=FILL_AREA_STYLE($,(#159));
#161=SURFACE_STYLE_FILL_AREA(#160);
#162=SURFACE_SIDE_STYLE('',(#161));
#163=SURFACE_STYLE_USAGE(.BOTH.,#162);
#164=PRESENTATION_STYLE_ASSIGNMENT((#163));
#165=STYLED_ITEM('',(#164),#157);
#166=ADVANCED_FACE('',(#292),#294,.T.);
#167=COLOUR_RGB('',0.752941176470588,0.752941176470588,0.752941176470588);
#168=FILL_AREA_STYLE_COLOUR('',#167);
#169=FILL_AREA_STYLE($,(#168));
#170=SURFACE_STYLE_FILL_AREA(#169);
#171=SURFACE_SIDE_STYLE('',(#170));
#172=SURFACE_STYLE_USAGE(.BOTH.,#171);
#173=PRESENTATION_STYLE_ASSIGNMENT((#172));
#174=STYLED_ITEM('',(#173),#166);
#175=ADVANCED_FACE('',(#299),#301,.T.);
#176=COLOUR_RGB('',0.752941176470588,0.752941176470588,0.752941176470588);
#177=FILL_AREA_STYLE_COLOUR('',#176);
#178=FILL_AREA_STYLE($,(#177));
#179=SURFACE_STYLE_FILL_AREA(#178);
#180=SURFACE_SIDE_STYLE('',(#179));
#181=SURFACE_STYLE_USAGE(.BOTH.,#180);
#182=PRESENTATION_STYLE_ASSIGNMENT((#181));
#183=STYLED_ITEM('',(#182),#175);
#184=FACE_BOUND('',#185,.T.);
#185=EDGE_LOOP('',(#306,#307,#308,#309,#310,#311,#312,#313));
#186=FACE_BOUND('',#187,.T.);
#187=EDGE_LOOP('',(#314));
#188=FACE_BOUND('',#189,.T.);
#189=EDGE_LOOP('',(#315));
#190=FACE_BOUND('',#191,.T.);
#191=EDGE_LOOP('',(#316));
#192=FACE_BOUND('',#193,.T.);
#193=EDGE_LOOP('',(#317));
#194=PLANE('',#195);
#195=AXIS2_PLACEMENT_3D('',#196,#197,#198);
#196=CARTESIAN_POINT('',(0.,0.,0.));
#197=DIRECTION('',(-0.,1.,0.));
#198=DIRECTION('',(1.,0.,0.));
#199=FACE_BOUND('',#200,.T.);
#200=EDGE_LOOP('',(#318,#319,#320,#321,#322,#323,#324,#325));
#201=FACE_BOUND('',#202,.T.);
#202=EDGE_LOOP('',(#326));
#203=FACE_BOUND('',#204,.T.);
#204=EDGE_LOOP('',(#327));
#205=FACE_BOUND('',#206,.T.);
#206=EDGE_LOOP('',(#328));
#207=FACE_BOUND('',#208,.T.);
#208=EDGE_LOOP('',(#329));
#209=PLANE('',#210);
#210=AXIS2_PLACEMENT_3D('',#211,#212,#213);
#211=CARTESIAN_POINT('',(0.,3.,0.));
#212=DIRECTION('',(-0.,1.,0.));
#213=DIRECTION('',(1.,0.,0.));
#214=FACE_OUTER_BOUND('',#215,.T.);
#215=EDGE_LOOP('',(#330));
#216=FACE_OUTER_BOUND('',#217,.T.);
#217=EDGE_LOOP('',(#331));
#218=CYLINDRICAL_SURFACE('',#219,2.6);
#219=AXIS2_PLACEMENT_3D('',#220,#221,#222);
#220=CARTESIAN_POINT('',(7.5,0.,-30.));
#221=DIRECTION('',(0.,1.,0.));
#222=DIRECTION('',(1.,0.,0.));
#223=FACE_OUTER_BOUND('',#224,.T.);
#224=EDGE_LOOP('',(#332));
#225=FACE_OUTER_BOUND('',#226,.T.);
#226=EDGE_LOOP('',(#333));
#227=CYLINDRICAL_SURFACE('',#228,2.6);
#228=AXIS2_PLACEMENT_3D('',#229,#230,#231);
#229=CARTESIAN_POINT('',(7.5,0.,-7.5));
#230=DIRECTION('',(0.,1.,0.));
#231=DIRECTION('',(1.,0.,0.));
#232=FACE_OUTER_BOUND('',#233,.T.);
#233=EDGE_LOOP('',(#334));
#234=FACE_OUTER_BOUND('',#235,.T.);
#235=EDGE_LOOP('',(#335));
#236=CYLINDRICAL_SURFACE('',#237,2.6);
#237=AXIS2_PLACEMENT_3D('',#238,#239,#240);
#238=CARTESIAN_POINT('',(22.5,0.,-7.5));
#239=DIRECTION('',(0.,1.,0.));
#240=DIRECTION('',(1.,0.,0.));
#241=FACE_OUTER_BOUND('',#242,.T.);
#242=EDGE_LOOP('',(#336));
#243=FACE_OUTER_BOUND('',#244,.T.);
#244=EDGE_LOOP('',(#337));
#245=CYLINDRICAL_SURFACE('',#246,2.6);
#246=AXIS2_PLACEMENT_3D('',#247,#248,#249);
#247=CARTESIAN_POINT('',(22.5,0.,-30.));
#248=DIRECTION('',(0.,1.,0.));
#249=DIRECTION('',(1.,0.,0.));
#250=FACE_BOUND('',#251,.T.);
#251=EDGE_LOOP('',(#338,#339,#340,#341));
#252=PLANE('',#253);
#253=AXIS2_PLACEMENT_3D('',#254,#255,#256);
#254=CARTESIAN_POINT('',(30.,0.,-37.5));
#255=DIRECTION('',(0.,0.,-1.));
#256=DIRECTION('',(-1.,0.,0.));
#257=FACE_BOUND('',#258,.T.);
#258=EDGE_LOOP('',(#342,#343,#344,#345));
#259=PLANE('',#260);
#260=AXIS2_PLACEMENT_3D('',#261,#262,#263);
#261=CARTESIAN_POINT('',(30.,0.,0.));
#262=DIRECTION('',(1.,-0.,0.));
#263=DIRECTION('',(0.,0.,-1.));
#264=FACE_BOUND('',#265,.T.);
#265=EDGE_LOOP('',(#346,#347,#348,#349));
#266=PLANE('',#267);
#267=AXIS2_PLACEMENT_3D('',#268,#269,#270);
#268=CARTESIAN_POINT('',(0.,0.,0.));
#269=DIRECTION('',(0.,0.,1.));
#270=DIRECTION('',(1.,0.,0.));
#271=FACE_BOUND('',#272,.T.);
#272=EDGE_LOOP('',(#350,#351,#352,#353));
#273=PLANE('',#274);
#274=AXIS2_PLACEMENT_3D('',#275,#276,#277);
#275=CARTESIAN_POINT('',(0.,0.,-37.5));
#276=DIRECTION('',(-1.,0.,0.));
#277=DIRECTION('',(0.,0.,1.));
#278=FACE_BOUND('',#279,.T.);
#279=EDGE_LOOP('',(#354,#355,#356,#357));
#280=CYLINDRICAL_SURFACE('',#281,2.);
#281=AXIS2_PLACEMENT_3D('',#282,#283,#284);
#282=CARTESIAN_POINT('',(2.,-8.00000000000001,-35.5));
#283=DIRECTION('',(-0.,-1.,-0.));
#284=DIRECTION('',(-1.,0.,0.));
#285=FACE_BOUND('',#286,.T.);
#286=EDGE_LOOP('',(#358,#359,#360,#361));
#287=CYLINDRICAL_SURFACE('',#288,2.);
#288=AXIS2_PLACEMENT_3D('',#289,#290,#291);
#289=CARTESIAN_POINT('',(28.,-8.00000000000001,-35.5));
#290=DIRECTION('',(-0.,-1.,-0.));
#291=DIRECTION('',(0.,0.,-1.));
#292=FACE_BOUND('',#293,.T.);
#293=EDGE_LOOP('',(#362,#363,#364,#365));
#294=CYLINDRICAL_SURFACE('',#295,2.);
#295=AXIS2_PLACEMENT_3D('',#296,#297,#298);
#296=CARTESIAN_POINT('',(28.,-8.00000000000001,-2.));
#297=DIRECTION('',(-0.,-1.,-0.));
#298=DIRECTION('',(1.,0.,0.));
#299=FACE_BOUND('',#300,.T.);
#300=EDGE_LOOP('',(#366,#367,#368,#369));
#301=CYLINDRICAL_SURFACE('',#302,2.);
#302=AXIS2_PLACEMENT_3D('',#303,#304,#305);
#303=CARTESIAN_POINT('',(2.,-8.00000000000001,-2.00000000000001));
#304=DIRECTION('',(-0.,-1.,-0.));
#305=DIRECTION('',(0.,0.,1.));
#306=ORIENTED_EDGE('',*,*,#370,.F.);
#307=ORIENTED_EDGE('',*,*,#371,.F.);
#308=ORIENTED_EDGE('',*,*,#372,.F.);
#309=ORIENTED_EDGE('',*,*,#373,.F.);
#310=ORIENTED_EDGE('',*,*,#374,.F.);
#311=ORIENTED_EDGE('',*,*,#375,.F.);
#312=ORIENTED_EDGE('',*,*,#376,.F.);
#313=ORIENTED_EDGE('',*,*,#377,.F.);
#314=ORIENTED_EDGE('',*,*,#378,.T.);
#315=ORIENTED_EDGE('',*,*,#379,.T.);
#316=ORIENTED_EDGE('',*,*,#380,.T.);
#317=ORIENTED_EDGE('',*,*,#381,.T.);
#318=ORIENTED_EDGE('',*,*,#382,.F.);
#319=ORIENTED_EDGE('',*,*,#383,.T.);
#320=ORIENTED_EDGE('',*,*,#384,.F.);
#321=ORIENTED_EDGE('',*,*,#385,.T.);
#322=ORIENTED_EDGE('',*,*,#386,.F.);
#323=ORIENTED_EDGE('',*,*,#387,.T.);
#324=ORIENTED_EDGE('',*,*,#388,.F.);
#325=ORIENTED_EDGE('',*,*,#389,.T.);
#326=ORIENTED_EDGE('',*,*,#390,.T.);
#327=ORIENTED_EDGE('',*,*,#391,.T.);
#328=ORIENTED_EDGE('',*,*,#392,.T.);
#329=ORIENTED_EDGE('',*,*,#393,.T.);
#330=ORIENTED_EDGE('',*,*,#393,.F.);
#331=ORIENTED_EDGE('',*,*,#381,.F.);
#332=ORIENTED_EDGE('',*,*,#392,.F.);
#333=ORIENTED_EDGE('',*,*,#380,.F.);
#334=ORIENTED_EDGE('',*,*,#391,.F.);
#335=ORIENTED_EDGE('',*,*,#379,.F.);
#336=ORIENTED_EDGE('',*,*,#390,.F.);
#337=ORIENTED_EDGE('',*,*,#378,.F.);
#338=ORIENTED_EDGE('',*,*,#394,.F.);
#339=ORIENTED_EDGE('',*,*,#373,.T.);
#340=ORIENTED_EDGE('',*,*,#395,.T.);
#341=ORIENTED_EDGE('',*,*,#387,.F.);
#342=ORIENTED_EDGE('',*,*,#396,.F.);
#343=ORIENTED_EDGE('',*,*,#375,.T.);
#344=ORIENTED_EDGE('',*,*,#397,.T.);
#345=ORIENTED_EDGE('',*,*,#385,.F.);
#346=ORIENTED_EDGE('',*,*,#398,.F.);
#347=ORIENTED_EDGE('',*,*,#377,.T.);
#348=ORIENTED_EDGE('',*,*,#399,.T.);
#349=ORIENTED_EDGE('',*,*,#383,.F.);
#350=ORIENTED_EDGE('',*,*,#400,.T.);
#351=ORIENTED_EDGE('',*,*,#389,.F.);
#352=ORIENTED_EDGE('',*,*,#401,.F.);
#353=ORIENTED_EDGE('',*,*,#371,.T.);
#354=ORIENTED_EDGE('',*,*,#395,.F.);
#355=ORIENTED_EDGE('',*,*,#372,.T.);
#356=ORIENTED_EDGE('',*,*,#401,.T.);
#357=ORIENTED_EDGE('',*,*,#388,.T.);
#358=ORIENTED_EDGE('',*,*,#397,.F.);
#359=ORIENTED_EDGE('',*,*,#374,.T.);
#360=ORIENTED_EDGE('',*,*,#394,.T.);
#361=ORIENTED_EDGE('',*,*,#386,.T.);
#362=ORIENTED_EDGE('',*,*,#399,.F.);
#363=ORIENTED_EDGE('',*,*,#376,.T.);
#364=ORIENTED_EDGE('',*,*,#396,.T.);
#365=ORIENTED_EDGE('',*,*,#384,.T.);
#366=ORIENTED_EDGE('',*,*,#400,.F.);
#367=ORIENTED_EDGE('',*,*,#370,.T.);
#368=ORIENTED_EDGE('',*,*,#398,.T.);
#369=ORIENTED_EDGE('',*,*,#382,.T.);
#370=EDGE_CURVE('',#402,#403,#404,.F.);
#371=EDGE_CURVE('',#405,#402,#406,.T.);
#372=EDGE_CURVE('',#407,#405,#408,.F.);
#373=EDGE_CURVE('',#409,#407,#410,.T.);
#374=EDGE_CURVE('',#411,#409,#412,.F.);
#375=EDGE_CURVE('',#413,#411,#414,.T.);
#376=EDGE_CURVE('',#415,#413,#416,.F.);
#377=EDGE_CURVE('',#403,#415,#417,.T.);
#378=EDGE_CURVE('',#418,#418,#419,.T.);
#379=EDGE_CURVE('',#420,#420,#421,.T.);
#380=EDGE_CURVE('',#422,#422,#423,.T.);
#381=EDGE_CURVE('',#424,#424,#425,.T.);
#382=EDGE_CURVE('',#426,#427,#428,.F.);
#383=EDGE_CURVE('',#426,#429,#430,.T.);
#384=EDGE_CURVE('',#431,#429,#432,.F.);
#385=EDGE_CURVE('',#431,#433,#434,.T.);
#386=EDGE_CURVE('',#435,#433,#436,.F.);
#387=EDGE_CURVE('',#435,#437,#438,.T.);
#388=EDGE_CURVE('',#439,#437,#440,.F.);
#389=EDGE_CURVE('',#439,#427,#441,.T.);
#390=EDGE_CURVE('',#442,#442,#443,.F.);
#391=EDGE_CURVE('',#444,#444,#445,.F.);
#392=EDGE_CURVE('',#446,#446,#447,.F.);
#393=EDGE_CURVE('',#448,#448,#449,.F.);
#394=EDGE_CURVE('',#409,#435,#450,.T.);
#395=EDGE_CURVE('',#407,#437,#451,.T.);
#396=EDGE_CURVE('',#413,#431,#452,.T.);
#397=EDGE_CURVE('',#411,#433,#453,.T.);
#398=EDGE_CURVE('',#403,#426,#454,.T.);
#399=EDGE_CURVE('',#415,#429,#455,.T.);
#400=EDGE_CURVE('',#402,#427,#456,.T.);
#401=EDGE_CURVE('',#405,#439,#457,.T.);
#402=VERTEX_POINT('',#458);
#403=VERTEX_POINT('',#459);
#404=CIRCLE('',#460,2.00000000000001);
#405=VERTEX_POINT('',#464);
#406=LINE('',#465,#466);
#407=VERTEX_POINT('',#468);
#408=CIRCLE('',#469,2.);
#409=VERTEX_POINT('',#473);
#410=LINE('',#474,#475);
#411=VERTEX_POINT('',#477);
#412=CIRCLE('',#478,2.00000000000001);
#413=VERTEX_POINT('',#482);
#414=LINE('',#483,#484);
#415=VERTEX_POINT('',#486);
#416=CIRCLE('',#487,2.);
#417=LINE('',#491,#492);
#418=VERTEX_POINT('',#494);
#419=CIRCLE('',#495,2.6);
#420=VERTEX_POINT('',#499);
#421=CIRCLE('',#500,2.6);
#422=VERTEX_POINT('',#504);
#423=CIRCLE('',#505,2.6);
#424=VERTEX_POINT('',#509);
#425=CIRCLE('',#510,2.6);
#426=VERTEX_POINT('',#514);
#427=VERTEX_POINT('',#515);
#428=CIRCLE('',#516,2.);
#429=VERTEX_POINT('',#520);
#430=LINE('',#521,#522);
#431=VERTEX_POINT('',#524);
#432=CIRCLE('',#525,2.);
#433=VERTEX_POINT('',#529);
#434=LINE('',#530,#531);
#435=VERTEX_POINT('',#533);
#436=CIRCLE('',#534,2.);
#437=VERTEX_POINT('',#538);
#438=LINE('',#539,#540);
#439=VERTEX_POINT('',#542);
#440=CIRCLE('',#543,2.);
#441=LINE('',#547,#548);
#442=VERTEX_POINT('',#550);
#443=CIRCLE('',#551,2.6);
#444=VERTEX_POINT('',#555);
#445=CIRCLE('',#556,2.6);
#446=VERTEX_POINT('',#560);
#447=CIRCLE('',#561,2.6);
#448=VERTEX_POINT('',#565);
#449=CIRCLE('',#566,2.6);
#450=LINE('',#570,#571);
#451=LINE('',#573,#574);
#452=LINE('',#576,#577);
#453=LINE('',#579,#580);
#454=LINE('',#582,#583);
#455=LINE('',#585,#586);
#456=LINE('',#588,#589);
#457=LINE('',#591,#592);
#458=CARTESIAN_POINT('',(-1.03620815631681E-015,0.,-2.00000000000001));
#459=CARTESIAN_POINT('',(2.,0.,-2.07241631263363E-015));
#460=AXIS2_PLACEMENT_3D('',#461,#462,#463);
#461=CARTESIAN_POINT('',(2.,0.,-2.00000000000001));
#462=DIRECTION('',(0.,-1.,0.));
#463=DIRECTION('',(-2.2204460492503E-016,0.,1.));
#464=CARTESIAN_POINT('',(-2.96059473233375E-016,0.,-35.5));
#465=CARTESIAN_POINT('',(0.,0.,-35.5));
#466=VECTOR('',#467,1.);
#467=DIRECTION('',(0.,0.,1.));
#468=CARTESIAN_POINT('',(2.,0.,-37.5));
#469=AXIS2_PLACEMENT_3D('',#470,#471,#472);
#470=CARTESIAN_POINT('',(2.,0.,-35.5));
#471=DIRECTION('',(0.,-1.,0.));
#472=DIRECTION('',(-1.,0.,0.));
#473=CARTESIAN_POINT('',(28.,0.,-37.5));
#474=CARTESIAN_POINT('',(28.,0.,-37.5));
#475=VECTOR('',#476,1.);
#476=DIRECTION('',(-1.,0.,0.));
#477=CARTESIAN_POINT('',(30.,0.,-35.5));
#478=AXIS2_PLACEMENT_3D('',#479,#480,#481);
#479=CARTESIAN_POINT('',(28.,0.,-35.5));
#480=DIRECTION('',(0.,-1.,0.));
#481=DIRECTION('',(0.,0.,-1.));
#482=CARTESIAN_POINT('',(30.,0.,-2.));
#483=CARTESIAN_POINT('',(30.,0.,-2.));
#484=VECTOR('',#485,1.);
#485=DIRECTION('',(0.,0.,-1.));
#486=CARTESIAN_POINT('',(28.,0.,-2.96059473233375E-016));
#487=AXIS2_PLACEMENT_3D('',#488,#489,#490);
#488=CARTESIAN_POINT('',(28.,0.,-2.));
#489=DIRECTION('',(0.,-1.,0.));
#490=DIRECTION('',(1.,0.,0.));
#491=CARTESIAN_POINT('',(2.,0.,0.));
#492=VECTOR('',#493,1.);
#493=DIRECTION('',(1.,0.,0.));
#494=CARTESIAN_POINT('',(25.1,0.,-30.));
#495=AXIS2_PLACEMENT_3D('',#496,#497,#498);
#496=CARTESIAN_POINT('',(22.5,0.,-30.));
#497=DIRECTION('',(-0.,1.,0.));
#498=DIRECTION('',(1.,0.,0.));
#499=CARTESIAN_POINT('',(25.1,0.,-7.5));
#500=AXIS2_PLACEMENT_3D('',#501,#502,#503);
#501=CARTESIAN_POINT('',(22.5,0.,-7.5));
#502=DIRECTION('',(-0.,1.,0.));
#503=DIRECTION('',(1.,0.,0.));
#504=CARTESIAN_POINT('',(10.1,0.,-7.5));
#505=AXIS2_PLACEMENT_3D('',#506,#507,#508);
#506=CARTESIAN_POINT('',(7.5,0.,-7.5));
#507=DIRECTION('',(-0.,1.,0.));
#508=DIRECTION('',(1.,0.,0.));
#509=CARTESIAN_POINT('',(10.1,0.,-30.));
#510=AXIS2_PLACEMENT_3D('',#511,#512,#513);
#511=CARTESIAN_POINT('',(7.5,0.,-30.));
#512=DIRECTION('',(-0.,1.,0.));
#513=DIRECTION('',(1.,0.,0.));
#514=CARTESIAN_POINT('',(2.,3.,-3.10862446895044E-015));
#515=CARTESIAN_POINT('',(0.,3.,-2.00000000000001));
#516=AXIS2_PLACEMENT_3D('',#517,#518,#519);
#517=CARTESIAN_POINT('',(2.,3.,-2.00000000000001));
#518=DIRECTION('',(-0.,1.,0.));
#519=DIRECTION('',(-1.,0.,-2.8865798640254E-015));
#520=CARTESIAN_POINT('',(28.,3.,0.));
#521=CARTESIAN_POINT('',(2.,3.,0.));
#522=VECTOR('',#523,1.);
#523=DIRECTION('',(1.,0.,0.));
#524=CARTESIAN_POINT('',(30.,3.,-2.));
#525=AXIS2_PLACEMENT_3D('',#526,#527,#528);
#526=CARTESIAN_POINT('',(28.,3.,-2.));
#527=DIRECTION('',(-0.,1.,0.));
#528=DIRECTION('',(0.,0.,1.));
#529=CARTESIAN_POINT('',(30.,3.,-35.5));
#530=CARTESIAN_POINT('',(30.,3.,-2.));
#531=VECTOR('',#532,1.);
#532=DIRECTION('',(0.,0.,-1.));
#533=CARTESIAN_POINT('',(28.,3.,-37.5));
#534=AXIS2_PLACEMENT_3D('',#535,#536,#537);
#535=CARTESIAN_POINT('',(28.,3.,-35.5));
#536=DIRECTION('',(-0.,1.,0.));
#537=DIRECTION('',(1.,0.,0.));
#538=CARTESIAN_POINT('',(2.,3.,-37.5));
#539=CARTESIAN_POINT('',(28.,3.,-37.5));
#540=VECTOR('',#541,1.);
#541=DIRECTION('',(-1.,0.,0.));
#542=CARTESIAN_POINT('',(-1.48029736616688E-016,3.,-35.5));
#543=AXIS2_PLACEMENT_3D('',#544,#545,#546);
#544=CARTESIAN_POINT('',(2.,3.,-35.5));
#545=DIRECTION('',(-0.,1.,0.));
#546=DIRECTION('',(-5.55111512312578E-016,0.,-1.));
#547=CARTESIAN_POINT('',(0.,3.,-35.5));
#548=VECTOR('',#549,1.);
#549=DIRECTION('',(0.,0.,1.));
#550=CARTESIAN_POINT('',(25.1,3.,-30.));
#551=AXIS2_PLACEMENT_3D('',#552,#553,#554);
#552=CARTESIAN_POINT('',(22.5,3.,-30.));
#553=DIRECTION('',(-0.,1.,0.));
#554=DIRECTION('',(1.,0.,0.));
#555=CARTESIAN_POINT('',(25.1,3.,-7.5));
#556=AXIS2_PLACEMENT_3D('',#557,#558,#559);
#557=CARTESIAN_POINT('',(22.5,3.,-7.5));
#558=DIRECTION('',(-0.,1.,0.));
#559=DIRECTION('',(1.,0.,0.));
#560=CARTESIAN_POINT('',(10.1,3.,-7.5));
#561=AXIS2_PLACEMENT_3D('',#562,#563,#564);
#562=CARTESIAN_POINT('',(7.5,3.,-7.5));
#563=DIRECTION('',(-0.,1.,0.));
#564=DIRECTION('',(1.,0.,0.));
#565=CARTESIAN_POINT('',(10.1,3.,-30.));
#566=AXIS2_PLACEMENT_3D('',#567,#568,#569);
#567=CARTESIAN_POINT('',(7.5,3.,-30.));
#568=DIRECTION('',(-0.,1.,0.));
#569=DIRECTION('',(1.,0.,0.));
#570=CARTESIAN_POINT('',(28.,0.,-37.5));
#571=VECTOR('',#572,1.);
#572=DIRECTION('',(0.,1.,0.));
#573=CARTESIAN_POINT('',(2.,0.,-37.5));
#574=VECTOR('',#575,1.);
#575=DIRECTION('',(0.,1.,0.));
#576=CARTESIAN_POINT('',(30.,0.,-2.));
#577=VECTOR('',#578,1.);
#578=DIRECTION('',(0.,1.,0.));
#579=CARTESIAN_POINT('',(30.,0.,-35.5));
#580=VECTOR('',#581,1.);
#581=DIRECTION('',(0.,1.,0.));
#582=CARTESIAN_POINT('',(2.,0.,0.));
#583=VECTOR('',#584,1.);
#584=DIRECTION('',(0.,1.,0.));
#585=CARTESIAN_POINT('',(28.,0.,0.));
#586=VECTOR('',#587,1.);
#587=DIRECTION('',(0.,1.,0.));
#588=CARTESIAN_POINT('',(0.,0.,-2.00000000000001));
#589=VECTOR('',#590,1.);
#590=DIRECTION('',(0.,1.,0.));
#591=CARTESIAN_POINT('',(0.,0.,-35.5));
#592=VECTOR('',#593,1.);
#593=DIRECTION('',(0.,1.,0.));
ENDSEC;
END-ISO-10303-21;
