ISO-10303-21;
HEADER;
FILE_DESCRIPTION(('STEP AP214'),
    '1');
FILE_NAME('ìîëîò30',
    '',
    ('UNSPECIFIED'),
    ('UNSPECIFIED'),
    'ASCON STEP Converter 1.3',
    'ASCON Math Kernel',
    '');
FILE_SCHEMA(('AUTOMOTIVE_DESIGN { 1 0 10303 214 3 1 1}'));
ENDSEC;

DATA;
#1=SHAPE_REPRESENTATION('NONE',(#2),#6);
#2=AXIS2_PLACEMENT_3D('',#3,#4,#5);
#3=CARTESIAN_POINT('',(0.,0.,0.));
#4=DIRECTION('',(0.,0.,1.));
#5=DIRECTION('',(1.,0.,0.));
#6=(GEOMETRIC_REPRESENTATION_CONTEXT(3)GLOBAL_UNCERTAINTY_ASSIGNED_CONTEXT((#8))
GLOBAL_UNIT_ASSIGNED_CONTEXT((#7,#9,#10))REPRESENTATION_CONTEXT('NONE','NONE'));
#7=(LENGTH_UNIT()NAMED_UNIT(*)SI_UNIT(.MILLI.,.METRE.));
#8=UNCERTAINTY_MEASURE_WITH_UNIT(LENGTH_MEASURE(1.E-005),#7,'NONE','NONE');
#9=(NAMED_UNIT(*)PLANE_ANGLE_UNIT()SI_UNIT($,.RADIAN.));
#10=(NAMED_UNIT(*)SI_UNIT($,.STERADIAN.)SOLID_ANGLE_UNIT());
#11=SHAPE_DEFINITION_REPRESENTATION(#12,#1);
#12=PRODUCT_DEFINITION_SHAPE('NONE','NONE',#13);
#13=PRODUCT_DEFINITION('','UNSPECIFIED',#14,#17);
#14=PRODUCT_DEFINITION_FORMATION_WITH_SPECIFIED_SOURCE('ANY','UNSPECIFIED',#15,.NOT_KNOWN.);
#15=PRODUCT('','Äåòàëü','NONE',(#20));
#16=PRODUCT_RELATED_PRODUCT_CATEGORY('detail','',(#15));
#17=DESIGN_CONTEXT('detailed design',#18,'design');
#18=APPLICATION_CONTEXT('configuration controlled 3d designs of mechanical parts and assemblies');
#19=APPLICATION_PROTOCOL_DEFINITION('international standard','automotive_design',
2011,#18);
#20=MECHANICAL_CONTEXT('NONE',#18,'mechanical');
#21=CC_DESIGN_DATE_AND_TIME_ASSIGNMENT(#22,#26,(#13));
#22=DATE_AND_TIME(#23,#24);
#23=CALENDAR_DATE(0,1,1);
#24=LOCAL_TIME(0,0,0.,#25);
#25=COORDINATED_UNIVERSAL_TIME_OFFSET(0,0,.AHEAD.);
#26=DATE_TIME_ROLE('creation_date');
#27=CC_DESIGN_APPROVAL(#28,(#13));
#28=APPROVAL(#29,'UNSPECIFIED');
#29=APPROVAL_STATUS('not_yet_approved');
#30=APPROVAL_DATE_TIME(#31,#28);
#31=DATE_AND_TIME(#32,#33);
#32=CALENDAR_DATE(0,1,1);
#33=LOCAL_TIME(0,0,0.,#34);
#34=COORDINATED_UNIVERSAL_TIME_OFFSET(0,0,.AHEAD.);
#35=DERIVED_UNIT((#39,#36));
#36=DERIVED_UNIT_ELEMENT(#37,-1.);
#37=VOLUME_UNIT(#38);
#38=DIMENSIONAL_EXPONENTS(3.,0.,0.,0.,0.,0.,0.);
#39=(NAMED_UNIT($)MASS_UNIT()SI_UNIT($,.GRAM.));
#40=MANIFOLD_SOLID_BREP('',#41);
#41=CLOSED_SHELL('',(#53,#62,#71,#80,#89,#98,#107,#116,#125,#134,#143));
#42=COLOUR_RGB($,0.564705882352941,0.564705882352941,0.564705882352941);
#43=FILL_AREA_STYLE_COLOUR($,#42);
#44=FILL_AREA_STYLE($,(#43));
#45=SURFACE_STYLE_FILL_AREA(#44);
#46=SURFACE_SIDE_STYLE('',(#45));
#47=SURFACE_STYLE_USAGE(.BOTH.,#46);
#48=PRESENTATION_STYLE_ASSIGNMENT((#47));
#49=MECHANICAL_DESIGN_GEOMETRIC_PRESENTATION_REPRESENTATION('NONE',(#50,#61,#70,
#79,#88,#97,#106,#115,#124,#133,#142,#151),#6);
#50=STYLED_ITEM('',(#48),#40);
#51=ADVANCED_BREP_SHAPE_REPRESENTATION('NONE',(#40),#6);
#52=SHAPE_REPRESENTATION_RELATIONSHIP('','',#1,#51);
#53=ADVANCED_FACE('',(#152),#154,.F.);
#54=COLOUR_RGB($,0.564705882352941,0.564705882352941,0.564705882352941);
#55=FILL_AREA_STYLE_COLOUR($,#54);
#56=FILL_AREA_STYLE($,(#55));
#57=SURFACE_STYLE_FILL_AREA(#56);
#58=SURFACE_SIDE_STYLE('',(#57));
#59=SURFACE_STYLE_USAGE(.BOTH.,#58);
#60=PRESENTATION_STYLE_ASSIGNMENT((#59));
#61=STYLED_ITEM('',(#60),#53);
#62=ADVANCED_FACE('',(#159),#161,.F.);
#63=COLOUR_RGB($,0.564705882352941,0.564705882352941,0.564705882352941);
#64=FILL_AREA_STYLE_COLOUR($,#63);
#65=FILL_AREA_STYLE($,(#64));
#66=SURFACE_STYLE_FILL_AREA(#65);
#67=SURFACE_SIDE_STYLE('',(#66));
#68=SURFACE_STYLE_USAGE(.BOTH.,#67);
#69=PRESENTATION_STYLE_ASSIGNMENT((#68));
#70=STYLED_ITEM('',(#69),#62);
#71=ADVANCED_FACE('',(#166),#168,.T.);
#72=COLOUR_RGB($,0.564705882352941,0.564705882352941,0.564705882352941);
#73=FILL_AREA_STYLE_COLOUR($,#72);
#74=FILL_AREA_STYLE($,(#73));
#75=SURFACE_STYLE_FILL_AREA(#74);
#76=SURFACE_SIDE_STYLE('',(#75));
#77=SURFACE_STYLE_USAGE(.BOTH.,#76);
#78=PRESENTATION_STYLE_ASSIGNMENT((#77));
#79=STYLED_ITEM('',(#78),#71);
#80=ADVANCED_FACE('',(#173),#175,.F.);
#81=COLOUR_RGB($,0.564705882352941,0.564705882352941,0.564705882352941);
#82=FILL_AREA_STYLE_COLOUR($,#81);
#83=FILL_AREA_STYLE($,(#82));
#84=SURFACE_STYLE_FILL_AREA(#83);
#85=SURFACE_SIDE_STYLE('',(#84));
#86=SURFACE_STYLE_USAGE(.BOTH.,#85);
#87=PRESENTATION_STYLE_ASSIGNMENT((#86));
#88=STYLED_ITEM('',(#87),#80);
#89=ADVANCED_FACE('',(#180),#182,.F.);
#90=COLOUR_RGB($,0.564705882352941,0.564705882352941,0.564705882352941);
#91=FILL_AREA_STYLE_COLOUR($,#90);
#92=FILL_AREA_STYLE($,(#91));
#93=SURFACE_STYLE_FILL_AREA(#92);
#94=SURFACE_SIDE_STYLE('',(#93));
#95=SURFACE_STYLE_USAGE(.BOTH.,#94);
#96=PRESENTATION_STYLE_ASSIGNMENT((#95));
#97=STYLED_ITEM('',(#96),#89);
#98=ADVANCED_FACE('',(#187),#189,.F.);
#99=COLOUR_RGB($,0.564705882352941,0.564705882352941,0.564705882352941);
#100=FILL_AREA_STYLE_COLOUR($,#99);
#101=FILL_AREA_STYLE($,(#100));
#102=SURFACE_STYLE_FILL_AREA(#101);
#103=SURFACE_SIDE_STYLE('',(#102));
#104=SURFACE_STYLE_USAGE(.BOTH.,#103);
#105=PRESENTATION_STYLE_ASSIGNMENT((#104));
#106=STYLED_ITEM('',(#105),#98);
#107=ADVANCED_FACE('',(#194),#196,.F.);
#108=COLOUR_RGB($,0.564705882352941,0.564705882352941,0.564705882352941);
#109=FILL_AREA_STYLE_COLOUR($,#108);
#110=FILL_AREA_STYLE($,(#109));
#111=SURFACE_STYLE_FILL_AREA(#110);
#112=SURFACE_SIDE_STYLE('',(#111));
#113=SURFACE_STYLE_USAGE(.BOTH.,#112);
#114=PRESENTATION_STYLE_ASSIGNMENT((#113));
#115=STYLED_ITEM('',(#114),#107);
#116=ADVANCED_FACE('',(#201),#203,.T.);
#117=COLOUR_RGB($,0.564705882352941,0.564705882352941,0.564705882352941);
#118=FILL_AREA_STYLE_COLOUR($,#117);
#119=FILL_AREA_STYLE($,(#118));
#120=SURFACE_STYLE_FILL_AREA(#119);
#121=SURFACE_SIDE_STYLE('',(#120));
#122=SURFACE_STYLE_USAGE(.BOTH.,#121);
#123=PRESENTATION_STYLE_ASSIGNMENT((#122));
#124=STYLED_ITEM('',(#123),#116);
#125=ADVANCED_FACE('',(#208),#210,.F.);
#126=COLOUR_RGB($,0.564705882352941,0.564705882352941,0.564705882352941);
#127=FILL_AREA_STYLE_COLOUR($,#126);
#128=FILL_AREA_STYLE($,(#127));
#129=SURFACE_STYLE_FILL_AREA(#128);
#130=SURFACE_SIDE_STYLE('',(#129));
#131=SURFACE_STYLE_USAGE(.BOTH.,#130);
#132=PRESENTATION_STYLE_ASSIGNMENT((#131));
#133=STYLED_ITEM('',(#132),#125);
#134=ADVANCED_FACE('',(#215),#217,.F.);
#135=COLOUR_RGB($,0.564705882352941,0.564705882352941,0.564705882352941);
#136=FILL_AREA_STYLE_COLOUR($,#135);
#137=FILL_AREA_STYLE($,(#136));
#138=SURFACE_STYLE_FILL_AREA(#137);
#139=SURFACE_SIDE_STYLE('',(#138));
#140=SURFACE_STYLE_USAGE(.BOTH.,#139);
#141=PRESENTATION_STYLE_ASSIGNMENT((#140));
#142=STYLED_ITEM('',(#141),#134);
#143=ADVANCED_FACE('',(#222),#224,.T.);
#144=COLOUR_RGB($,0.564705882352941,0.564705882352941,0.564705882352941);
#145=FILL_AREA_STYLE_COLOUR($,#144);
#146=FILL_AREA_STYLE($,(#145));
#147=SURFACE_STYLE_FILL_AREA(#146);
#148=SURFACE_SIDE_STYLE('',(#147));
#149=SURFACE_STYLE_USAGE(.BOTH.,#148);
#150=PRESENTATION_STYLE_ASSIGNMENT((#149));
#151=STYLED_ITEM('',(#150),#143);
#152=FACE_BOUND('',#153,.T.);
#153=EDGE_LOOP('',(#229,#230,#231,#232,#233,#234,#235,#236));
#154=PLANE('',#155);
#155=AXIS2_PLACEMENT_3D('',#156,#157,#158);
#156=CARTESIAN_POINT('',(0.,0.,400.));
#157=DIRECTION('',(0.,0.,-1.));
#158=DIRECTION('',(1.,0.,0.));
#159=FACE_BOUND('',#160,.T.);
#160=EDGE_LOOP('',(#237,#238,#239,#240));
#161=CONICAL_SURFACE('',#162,12.5,0.0166651237139407);
#162=AXIS2_PLACEMENT_3D('',#163,#164,#165);
#163=CARTESIAN_POINT('',(0.,0.,150.));
#164=DIRECTION('',(0.,0.,-1.));
#165=DIRECTION('',(1.,0.,0.));
#166=FACE_BOUND('',#167,.T.);
#167=EDGE_LOOP('',(#241,#242,#243,#244,#245));
#168=PLANE('',#169);
#169=AXIS2_PLACEMENT_3D('',#170,#171,#172);
#170=CARTESIAN_POINT('',(0.,0.,0.));
#171=DIRECTION('',(-0.707106781186548,-0.707106781186547,0.));
#172=DIRECTION('',(0.,0.,1.));
#173=FACE_BOUND('',#174,.T.);
#174=EDGE_LOOP('',(#246,#247,#248,#249,#250));
#175=PLANE('',#176);
#176=AXIS2_PLACEMENT_3D('',#177,#178,#179);
#177=CARTESIAN_POINT('',(0.,0.,0.));
#178=DIRECTION('',(-0.707106781186548,0.707106781186547,0.));
#179=DIRECTION('',(0.,0.,1.));
#180=FACE_BOUND('',#181,.T.);
#181=EDGE_LOOP('',(#251,#252,#253,#254));
#182=CYLINDRICAL_SURFACE('',#183,10.);
#183=AXIS2_PLACEMENT_3D('',#184,#185,#186);
#184=CARTESIAN_POINT('',(0.,0.,300.));
#185=DIRECTION('',(0.,0.,1.));
#186=DIRECTION('',(1.,0.,0.));
#187=FACE_BOUND('',#188,.T.);
#188=EDGE_LOOP('',(#255,#256,#257,#258));
#189=PLANE('',#190);
#190=AXIS2_PLACEMENT_3D('',#191,#192,#193);
#191=CARTESIAN_POINT('',(50.,25.1060491817706,400.));
#192=DIRECTION('',(-0.,-1.,-0.));
#193=DIRECTION('',(-1.,0.,0.));
#194=FACE_BOUND('',#195,.T.);
#195=EDGE_LOOP('',(#259,#260,#261,#262));
#196=PLANE('',#197);
#197=AXIS2_PLACEMENT_3D('',#198,#199,#200);
#198=CARTESIAN_POINT('',(25.,25.1060491817706,400.));
#199=DIRECTION('',(-1.,0.,0.));
#200=DIRECTION('',(0.,1.,0.));
#201=FACE_BOUND('',#202,.T.);
#202=EDGE_LOOP('',(#263,#264,#265,#266));
#203=PLANE('',#204);
#204=AXIS2_PLACEMENT_3D('',#205,#206,#207);
#205=CARTESIAN_POINT('',(-40.,40.,400.));
#206=DIRECTION('',(-0.,0.999687646408123,0.0249921911602031));
#207=DIRECTION('',(1.,0.,0.));
#208=FACE_BOUND('',#209,.T.);
#209=EDGE_LOOP('',(#267,#268,#269,#270));
#210=PLANE('',#211);
#211=AXIS2_PLACEMENT_3D('',#212,#213,#214);
#212=CARTESIAN_POINT('',(-25.0557742316155,50.1060491817706,400.));
#213=DIRECTION('',(1.,0.,0.));
#214=DIRECTION('',(0.,-1.,0.));
#215=FACE_BOUND('',#216,.T.);
#216=EDGE_LOOP('',(#271,#272,#273,#274));
#217=PLANE('',#218);
#218=AXIS2_PLACEMENT_3D('',#219,#220,#221);
#219=CARTESIAN_POINT('',(-25.0557742316155,25.1060491817706,400.));
#220=DIRECTION('',(-0.,-1.,-0.));
#221=DIRECTION('',(-1.,0.,0.));
#222=FACE_BOUND('',#223,.T.);
#223=EDGE_LOOP('',(#275,#276,#277,#278,#279,#280,#281,#282));
#224=PLANE('',#225);
#225=AXIS2_PLACEMENT_3D('',#226,#227,#228);
#226=CARTESIAN_POINT('',(0.,0.,0.));
#227=DIRECTION('',(0.,0.,-1.));
#228=DIRECTION('',(1.,0.,0.));
#229=ORIENTED_EDGE('',*,*,#283,.T.);
#230=ORIENTED_EDGE('',*,*,#284,.T.);
#231=ORIENTED_EDGE('',*,*,#285,.T.);
#232=ORIENTED_EDGE('',*,*,#286,.T.);
#233=ORIENTED_EDGE('',*,*,#287,.F.);
#234=ORIENTED_EDGE('',*,*,#288,.T.);
#235=ORIENTED_EDGE('',*,*,#289,.T.);
#236=ORIENTED_EDGE('',*,*,#290,.T.);
#237=ORIENTED_EDGE('',*,*,#291,.T.);
#238=ORIENTED_EDGE('',*,*,#292,.F.);
#239=ORIENTED_EDGE('',*,*,#293,.F.);
#240=ORIENTED_EDGE('',*,*,#294,.F.);
#241=ORIENTED_EDGE('',*,*,#295,.T.);
#242=ORIENTED_EDGE('',*,*,#290,.F.);
#243=ORIENTED_EDGE('',*,*,#296,.F.);
#244=ORIENTED_EDGE('',*,*,#297,.F.);
#245=ORIENTED_EDGE('',*,*,#292,.T.);
#246=ORIENTED_EDGE('',*,*,#298,.T.);
#247=ORIENTED_EDGE('',*,*,#294,.T.);
#248=ORIENTED_EDGE('',*,*,#299,.F.);
#249=ORIENTED_EDGE('',*,*,#300,.F.);
#250=ORIENTED_EDGE('',*,*,#284,.F.);
#251=ORIENTED_EDGE('',*,*,#298,.F.);
#252=ORIENTED_EDGE('',*,*,#283,.F.);
#253=ORIENTED_EDGE('',*,*,#295,.F.);
#254=ORIENTED_EDGE('',*,*,#291,.F.);
#255=ORIENTED_EDGE('',*,*,#300,.T.);
#256=ORIENTED_EDGE('',*,*,#301,.F.);
#257=ORIENTED_EDGE('',*,*,#302,.F.);
#258=ORIENTED_EDGE('',*,*,#285,.F.);
#259=ORIENTED_EDGE('',*,*,#303,.F.);
#260=ORIENTED_EDGE('',*,*,#286,.F.);
#261=ORIENTED_EDGE('',*,*,#302,.T.);
#262=ORIENTED_EDGE('',*,*,#304,.F.);
#263=ORIENTED_EDGE('',*,*,#303,.T.);
#264=ORIENTED_EDGE('',*,*,#305,.F.);
#265=ORIENTED_EDGE('',*,*,#306,.T.);
#266=ORIENTED_EDGE('',*,*,#287,.T.);
#267=ORIENTED_EDGE('',*,*,#306,.F.);
#268=ORIENTED_EDGE('',*,*,#307,.F.);
#269=ORIENTED_EDGE('',*,*,#308,.F.);
#270=ORIENTED_EDGE('',*,*,#288,.F.);
#271=ORIENTED_EDGE('',*,*,#296,.T.);
#272=ORIENTED_EDGE('',*,*,#289,.F.);
#273=ORIENTED_EDGE('',*,*,#308,.T.);
#274=ORIENTED_EDGE('',*,*,#309,.F.);
#275=ORIENTED_EDGE('',*,*,#293,.T.);
#276=ORIENTED_EDGE('',*,*,#297,.T.);
#277=ORIENTED_EDGE('',*,*,#309,.T.);
#278=ORIENTED_EDGE('',*,*,#307,.T.);
#279=ORIENTED_EDGE('',*,*,#305,.T.);
#280=ORIENTED_EDGE('',*,*,#304,.T.);
#281=ORIENTED_EDGE('',*,*,#301,.T.);
#282=ORIENTED_EDGE('',*,*,#299,.T.);
#283=EDGE_CURVE('',#310,#311,#312,.F.);
#284=EDGE_CURVE('',#311,#313,#314,.T.);
#285=EDGE_CURVE('',#313,#315,#316,.T.);
#286=EDGE_CURVE('',#315,#317,#318,.T.);
#287=EDGE_CURVE('',#319,#317,#320,.T.);
#288=EDGE_CURVE('',#319,#321,#322,.T.);
#289=EDGE_CURVE('',#321,#323,#324,.T.);
#290=EDGE_CURVE('',#323,#310,#325,.F.);
#291=EDGE_CURVE('',#326,#327,#328,.F.);
#292=EDGE_CURVE('',#329,#327,#330,.F.);
#293=EDGE_CURVE('',#331,#329,#332,.F.);
#294=EDGE_CURVE('',#326,#331,#333,.T.);
#295=EDGE_CURVE('',#327,#310,#334,.T.);
#296=EDGE_CURVE('',#335,#323,#336,.F.);
#297=EDGE_CURVE('',#329,#335,#337,.T.);
#298=EDGE_CURVE('',#311,#326,#338,.F.);
#299=EDGE_CURVE('',#339,#331,#340,.F.);
#300=EDGE_CURVE('',#313,#339,#341,.T.);
#301=EDGE_CURVE('',#342,#339,#343,.F.);
#302=EDGE_CURVE('',#315,#342,#344,.T.);
#303=EDGE_CURVE('',#317,#345,#346,.F.);
#304=EDGE_CURVE('',#345,#342,#347,.F.);
#305=EDGE_CURVE('',#348,#345,#349,.T.);
#306=EDGE_CURVE('',#348,#319,#350,.F.);
#307=EDGE_CURVE('',#351,#348,#352,.F.);
#308=EDGE_CURVE('',#321,#351,#353,.T.);
#309=EDGE_CURVE('',#335,#351,#354,.F.);
#310=VERTEX_POINT('',#355);
#311=VERTEX_POINT('',#356);
#312=CIRCLE('',#357,10.);
#313=VERTEX_POINT('',#361);
#314=LINE('',#362,#363);
#315=VERTEX_POINT('',#365);
#316=LINE('',#366,#367);
#317=VERTEX_POINT('',#369);
#318=LINE('',#370,#371);
#319=VERTEX_POINT('',#373);
#320=LINE('',#374,#375);
#321=VERTEX_POINT('',#377);
#322=LINE('',#378,#379);
#323=VERTEX_POINT('',#381);
#324=LINE('',#382,#383);
#325=LINE('',#385,#386);
#326=VERTEX_POINT('',#388);
#327=VERTEX_POINT('',#389);
#328=CIRCLE('',#390,10.);
#329=VERTEX_POINT('',#394);
#330=LINE('',#395,#396);
#331=VERTEX_POINT('',#398);
#332=CIRCLE('',#399,15.);
#333=LINE('',#403,#404);
#334=LINE('',#406,#407);
#335=VERTEX_POINT('',#409);
#336=LINE('',#410,#411);
#337=LINE('',#413,#414);
#338=LINE('',#416,#417);
#339=VERTEX_POINT('',#419);
#340=LINE('',#420,#421);
#341=LINE('',#423,#424);
#342=VERTEX_POINT('',#426);
#343=LINE('',#427,#428);
#344=LINE('',#430,#431);
#345=VERTEX_POINT('',#433);
#346=LINE('',#434,#435);
#347=LINE('',#437,#438);
#348=VERTEX_POINT('',#440);
#349=LINE('',#441,#442);
#350=LINE('',#444,#445);
#351=VERTEX_POINT('',#447);
#352=LINE('',#448,#449);
#353=LINE('',#451,#452);
#354=LINE('',#454,#455);
#355=CARTESIAN_POINT('',(-7.07106781186547,7.07106781186548,400.));
#356=CARTESIAN_POINT('',(7.07106781186547,7.07106781186547,400.));
#357=AXIS2_PLACEMENT_3D('',#358,#359,#360);
#358=CARTESIAN_POINT('',(0.,0.,400.));
#359=DIRECTION('',(0.,0.,1.));
#360=DIRECTION('',(0.707106781186547,0.707106781186548,0.));
#361=CARTESIAN_POINT('',(25.1060491817706,25.1060491817706,400.));
#362=CARTESIAN_POINT('',(7.07106781186547,7.07106781186547,400.));
#363=VECTOR('',#364,1.);
#364=DIRECTION('',(0.707106781186548,0.707106781186548,0.));
#365=CARTESIAN_POINT('',(25.,25.1060491817706,400.));
#366=CARTESIAN_POINT('',(25.1060491817706,25.1060491817706,400.));
#367=VECTOR('',#368,1.);
#368=DIRECTION('',(-1.,0.,0.));
#369=CARTESIAN_POINT('',(25.,40.,400.));
#370=CARTESIAN_POINT('',(25.,25.1060491817706,400.));
#371=VECTOR('',#372,1.);
#372=DIRECTION('',(0.,1.,0.));
#373=CARTESIAN_POINT('',(-25.0557742316155,40.,400.));
#374=CARTESIAN_POINT('',(-25.0557742316155,40.,400.));
#375=VECTOR('',#376,1.);
#376=DIRECTION('',(1.,0.,0.));
#377=CARTESIAN_POINT('',(-25.0557742316155,25.1060491817706,400.));
#378=CARTESIAN_POINT('',(-25.0557742316155,40.,400.));
#379=VECTOR('',#380,1.);
#380=DIRECTION('',(0.,-1.,0.));
#381=CARTESIAN_POINT('',(-25.1060491817706,25.1060491817706,400.));
#382=CARTESIAN_POINT('',(-25.0557742316155,25.1060491817706,400.));
#383=VECTOR('',#384,1.);
#384=DIRECTION('',(-1.,0.,0.));
#385=CARTESIAN_POINT('',(-7.07106781186548,7.07106781186548,400.));
#386=VECTOR('',#387,1.);
#387=DIRECTION('',(-0.707106781186548,0.707106781186548,0.));
#388=CARTESIAN_POINT('',(7.07106781186547,7.07106781186548,300.));
#389=CARTESIAN_POINT('',(-7.07106781186548,7.07106781186547,300.));
#390=AXIS2_PLACEMENT_3D('',#391,#392,#393);
#391=CARTESIAN_POINT('',(0.,0.,300.));
#392=DIRECTION('',(0.,0.,-1.));
#393=DIRECTION('',(-0.707106781186548,0.707106781186547,0.));
#394=CARTESIAN_POINT('',(-10.6066017177982,10.6066017177982,0.));
#395=CARTESIAN_POINT('',(-7.07106781186547,7.07106781186548,300.));
#396=VECTOR('',#397,1.);
#397=DIRECTION('',(-0.0117834765394486,0.0117834765394486,-0.9998611400396));
#398=CARTESIAN_POINT('',(10.6066017177982,10.6066017177982,0.));
#399=AXIS2_PLACEMENT_3D('',#400,#401,#402);
#400=CARTESIAN_POINT('',(0.,0.,0.));
#401=DIRECTION('',(0.,0.,-1.));
#402=DIRECTION('',(-0.707106781186548,0.707106781186547,0.));
#403=CARTESIAN_POINT('',(7.07106781186547,7.07106781186547,300.));
#404=VECTOR('',#405,1.);
#405=DIRECTION('',(0.0117834765394486,0.0117834765394486,-0.9998611400396));
#406=CARTESIAN_POINT('',(-7.07106781186547,7.07106781186547,300.));
#407=VECTOR('',#408,1.);
#408=DIRECTION('',(0.,0.,1.));
#409=CARTESIAN_POINT('',(-25.1060491817706,25.1060491817706,0.));
#410=CARTESIAN_POINT('',(-25.1060491817706,25.1060491817706,400.));
#411=VECTOR('',#412,1.);
#412=DIRECTION('',(0.,0.,-1.));
#413=CARTESIAN_POINT('',(-10.6066017177982,10.6066017177982,0.));
#414=VECTOR('',#415,1.);
#415=DIRECTION('',(-0.707106781186547,0.707106781186548,0.));
#416=CARTESIAN_POINT('',(7.07106781186547,7.07106781186547,300.));
#417=VECTOR('',#418,1.);
#418=DIRECTION('',(0.,0.,1.));
#419=CARTESIAN_POINT('',(25.1060491817706,25.1060491817706,0.));
#420=CARTESIAN_POINT('',(10.6066017177982,10.6066017177982,0.));
#421=VECTOR('',#422,1.);
#422=DIRECTION('',(0.707106781186547,0.707106781186548,0.));
#423=CARTESIAN_POINT('',(25.1060491817706,25.1060491817706,400.));
#424=VECTOR('',#425,1.);
#425=DIRECTION('',(0.,0.,-1.));
#426=CARTESIAN_POINT('',(25.,25.1060491817706,0.));
#427=CARTESIAN_POINT('',(25.1060491817706,25.1060491817706,0.));
#428=VECTOR('',#429,1.);
#429=DIRECTION('',(-1.,0.,0.));
#430=CARTESIAN_POINT('',(25.,25.1060491817706,400.));
#431=VECTOR('',#432,1.);
#432=DIRECTION('',(0.,0.,-1.));
#433=CARTESIAN_POINT('',(25.,50.,2.8421709430404E-014));
#434=CARTESIAN_POINT('',(25.,50.,5.6843418860808E-014));
#435=VECTOR('',#436,1.);
#436=DIRECTION('',(0.,-0.0249921911602031,0.999687646408123));
#437=CARTESIAN_POINT('',(25.,25.1060491817706,0.));
#438=VECTOR('',#439,1.);
#439=DIRECTION('',(0.,1.,0.));
#440=CARTESIAN_POINT('',(-25.0557742316155,50.,2.8421709430404E-014));
#441=CARTESIAN_POINT('',(-25.0557742316155,50.,5.6843418860808E-014));
#442=VECTOR('',#443,1.);
#443=DIRECTION('',(1.,0.,0.));
#444=CARTESIAN_POINT('',(-25.0557742316155,40.,400.));
#445=VECTOR('',#446,1.);
#446=DIRECTION('',(0.,0.0249921911602031,-0.999687646408123));
#447=CARTESIAN_POINT('',(-25.0557742316155,25.1060491817706,0.));
#448=CARTESIAN_POINT('',(-25.0557742316155,50.,0.));
#449=VECTOR('',#450,1.);
#450=DIRECTION('',(0.,-1.,0.));
#451=CARTESIAN_POINT('',(-25.0557742316155,25.1060491817706,400.));
#452=VECTOR('',#453,1.);
#453=DIRECTION('',(0.,0.,-1.));
#454=CARTESIAN_POINT('',(-25.0557742316155,25.1060491817706,0.));
#455=VECTOR('',#456,1.);
#456=DIRECTION('',(-1.,0.,0.));
#457=DRAUGHTING_MODEL('NONE',(#458),#6);
#458=ANNOTATION_PLANE('',(#459),#463,(#492));
#459=PRESENTATION_STYLE_ASSIGNMENT((#461));
#460=COLOUR_RGB($,0.,0.,0.);
#461=CURVE_STYLE($,#462,POSITIVE_LENGTH_MEASURE(0.1),#460);
#462=PRE_DEFINED_CURVE_FONT('continuous');
#463=PLANE('',#464);
#464=AXIS2_PLACEMENT_3D('',#465,#466,#467);
#465=CARTESIAN_POINT('',(25.1060491817706,100.,0.));
#466=DIRECTION('',(0.,0.,1.));
#467=DIRECTION('',(1.,0.,0.));
#468=EXTERNALLY_DEFINED_TEXT_FONT(IDENTIFIER(''),#469);
#469=EXTERNAL_SOURCE(IDENTIFIER('Gost Type A'));
#470=TEXT_LITERAL_WITH_EXTENT('enumeration','1',#472,'',.LEFT.,#468,#471);
#471=PLANAR_EXTENT('',2.75566649436951,4.99506902694702);
#472=AXIS2_PLACEMENT_3D('',#473,#474,#475);
#473=CARTESIAN_POINT('',(25.1060491817706,100.,0.));
#474=DIRECTION('',(0.,0.,1.));
#475=DIRECTION('',(1.,0.,0.));
#476=COMPOSITE_TEXT('enumeration',(#470,#483));
#477=EXTERNALLY_DEFINED_TEXT_FONT(IDENTIFIER(''),#478);
#478=EXTERNAL_SOURCE(IDENTIFIER(''));
#479=AXIS2_PLACEMENT_3D('',#480,#481,#482);
#480=CARTESIAN_POINT('',(25.1060491817706,100.,0.));
#481=DIRECTION('',(0.,0.,1.));
#482=DIRECTION('',(1.,0.,0.));
#483=TEXT_LITERAL('','',#479,'',.UNSPECIFIED.,#477);
#484=COMPOSITE_TEXT('paragraph',(#476,#491));
#485=EXTERNALLY_DEFINED_TEXT_FONT(IDENTIFIER(''),#486);
#486=EXTERNAL_SOURCE(IDENTIFIER(''));
#487=AXIS2_PLACEMENT_3D('',#488,#489,#490);
#488=CARTESIAN_POINT('',(25.1060491817706,100.,0.));
#489=DIRECTION('',(0.,0.,1.));
#490=DIRECTION('',(1.,0.,0.));
#491=TEXT_LITERAL('','',#487,'',.UNSPECIFIED.,#485);
#492=(ANNOTATION_OCCURRENCE()ANNOTATION_TEXT_OCCURRENCE()DRAUGHTING_ANNOTATION_OCCURRENCE(
)GEOMETRIC_REPRESENTATION_ITEM()REPRESENTATION_ITEM('')STYLED_ITEM((#493),#484));
#493=PRESENTATION_STYLE_ASSIGNMENT((#494));
#494=TEXT_STYLE_WITH_BOX_CHARACTERISTICS('',#495,(BOX_SLANT_ANGLE(0.),BOX_ROTATE_ANGLE(
0.)));
#495=TEXT_STYLE_FOR_DEFINED_FONT(#496);
#496=COLOUR_RGB($,0.,0.,0.);
#497=SHAPE_ASPECT('','',#12,.F.);
#498=DRAUGHTING_MODEL_ITEM_ASSOCIATION('','',#497,#457,$);
#499=DRAUGHTING_CALLOUT('',(#492));
ENDSEC;
END-ISO-10303-21;
