  0
SECTION
  2
HEADER
  9
$ACADVER
  1
AC1015
  9
$ACADMAINTVER
 70
     6
  9
$DWGCODEPAGE
  3
ANSI_1251
  9
$INSBASE
 10
0.0
 20
0.0
 30
0.0
  9
$EXTMIN
 10
-350.0
 20
-349.9999999999
 30
0.0
  9
$EXTMAX
 10
350.0
 20
350.0000000001
 30
0.0
  9
$LIMMIN
 10
0.0
 20
0.0
  9
$LIMMAX
 10
420.0
 20
297.0
  9
$ORTHOMODE
 70
     0
  9
$REGENMODE
 70
     1
  9
$FILLMODE
 70
     1
  9
$QTEXTMODE
 70
     0
  9
$MIRRTEXT
 70
     1
  9
$LTSCALE
 40
1.0
  9
$ATTMODE
 70
     1
  9
$TEXTSIZE
 40
4.0
  9
$TRACEWID
 40
1.0
  9
$TEXTSTYLE
  7
Standard
  9
$CLAYER
  8
0
  9
$CELTYPE
  6
ByLayer
  9
$CECOLOR
 62
   256
  9
$CELTSCALE
 40
1.0
  9
$DISPSILH
 70
     0
  9
$DIMSCALE
 40
1.0
  9
$DIMASZ
 40
6.0
  9
$DIMEXO
 40
1.0
  9
$DIMDLI
 40
3.75
  9
$DIMRND
 40
0.0
  9
$DIMDLE
 40
0.0
  9
$DIMEXE
 40
1.0
  9
$DIMTP
 40
0.0
  9
$DIMTM
 40
0.0
  9
$DIMTXT
 40
4.0
  9
$DIMCEN
 40
2.5
  9
$DIMTSZ
 40
0.0
  9
$DIMTOL
 70
     0
  9
$DIMLIM
 70
     0
  9
$DIMTIH
 70
     1
  9
$DIMTOH
 70
     1
  9
$DIMSE1
 70
     0
  9
$DIMSE2
 70
     0
  9
$DIMTAD
 70
     1
  9
$DIMZIN
 70
     0
  9
$DIMBLK
  1

  9
$DIMASO
 70
     1
  9
$DIMSHO
 70
     1
  9
$DIMPOST
  1

  9
$DIMAPOST
  1

  9
$DIMALT
 70
     0
  9
$DIMALTD
 70
     3
  9
$DIMALTF
 40
0.0393700787
  9
$DIMLFAC
 40
1.0
  9
$DIMTOFL
 70
     1
  9
$DIMTVP
 40
0.0
  9
$DIMTIX
 70
     0
  9
$DIMSOXD
 70
     0
  9
$DIMSAH
 70
     0
  9
$DIMBLK1
  1

  9
$DIMBLK2
  1

  9
$DIMSTYLE
  2
ISO-25
  9
$DIMCLRD
 70
     0
  9
$DIMCLRE
 70
     0
  9
$DIMCLRT
 70
     0
  9
$DIMTFAC
 40
1.0
  9
$DIMGAP
 40
3.0
  9
$DIMJUST
 70
     0
  9
$DIMSD1
 70
     0
  9
$DIMSD2
 70
     0
  9
$DIMTOLJ
 70
     0
  9
$DIMTZIN
 70
     0
  9
$DIMALTZ
 70
     0
  9
$DIMALTTZ
 70
     0
  9
$DIMUPT
 70
     0
  9
$DIMDEC
 70
     2
  9
$DIMTDEC
 70
     4
  9
$DIMALTU
 70
     2
  9
$DIMALTTD
 70
     3
  9
$DIMTXSTY
  7
Standard
  9
$DIMAUNIT
 70
     0
  9
$DIMADEC
 70
     2
  9
$DIMALTRND
 40
0.0
  9
$DIMAZIN
 70
     0
  9
$DIMDSEP
 70
    44
  9
$DIMATFIT
 70
     3
  9
$DIMFRAC
 70
     0
  9
$DIMLDRBLK
  1

  9
$DIMLUNIT
 70
     2
  9
$DIMLWD
 70
    -2
  9
$DIMLWE
 70
    -2
  9
$DIMTMOVE
 70
     0
  9
$LUNITS
 70
     2
  9
$LUPREC
 70
     2
  9
$SKETCHINC
 40
1.0
  9
$FILLETRAD
 40
10.0
  9
$AUNITS
 70
     0
  9
$AUPREC
 70
     2
  9
$MENU
  1
.
  9
$ELEVATION
 40
0.0
  9
$PELEVATION
 40
0.0
  9
$THICKNESS
 40
0.0
  9
$LIMCHECK
 70
     0
  9
$CHAMFERA
 40
0.0
  9
$CHAMFERB
 40
0.0
  9
$CHAMFERC
 40
0.0
  9
$CHAMFERD
 40
0.0
  9
$SKPOLY
 70
     0
  9
$TDCREATE
 40
2458890.587321331
  9
$TDUCREATE
 40
2458890.420654664
  9
$TDUPDATE
 40
2458890.587737002
  9
$TDUUPDATE
 40
2458890.421070335
  9
$TDINDWG
 40
0.0000000116
  9
$TDUSRTIMER
 40
0.0000000116
  9
$USRTIMER
 70
     1
  9
$ANGBASE
 50
0.0
  9
$ANGDIR
 70
     0
  9
$PDMODE
 70
     0
  9
$PDSIZE
 40
-1.0
  9
$PLINEWID
 40
0.0
  9
$SPLFRAME
 70
     0
  9
$SPLINETYPE
 70
     6
  9
$SPLINESEGS
 70
     8
  9
$HANDSEED
  5
383
  9
$SURFTAB1
 70
     6
  9
$SURFTAB2
 70
     6
  9
$SURFTYPE
 70
     6
  9
$SURFU
 70
     6
  9
$SURFV
 70
     6
  9
$UCSBASE
  2

  9
$UCSNAME
  2

  9
$UCSORG
 10
0.0
 20
0.0
 30
0.0
  9
$UCSXDIR
 10
1.0
 20
0.0
 30
0.0
  9
$UCSYDIR
 10
0.0
 20
1.0
 30
0.0
  9
$UCSORTHOREF
  2

  9
$UCSORTHOVIEW
 70
     0
  9
$UCSORGTOP
 10
0.0
 20
0.0
 30
0.0
  9
$UCSORGBOTTOM
 10
0.0
 20
0.0
 30
0.0
  9
$UCSORGLEFT
 10
0.0
 20
0.0
 30
0.0
  9
$UCSORGRIGHT
 10
0.0
 20
0.0
 30
0.0
  9
$UCSORGFRONT
 10
0.0
 20
0.0
 30
0.0
  9
$UCSORGBACK
 10
0.0
 20
0.0
 30
0.0
  9
$PUCSBASE
  2

  9
$PUCSNAME
  2

  9
$PUCSORG
 10
0.0
 20
0.0
 30
0.0
  9
$PUCSXDIR
 10
1.0
 20
0.0
 30
0.0
  9
$PUCSYDIR
 10
0.0
 20
1.0
 30
0.0
  9
$PUCSORTHOREF
  2

  9
$PUCSORTHOVIEW
 70
     0
  9
$PUCSORGTOP
 10
0.0
 20
0.0
 30
0.0
  9
$PUCSORGBOTTOM
 10
0.0
 20
0.0
 30
0.0
  9
$PUCSORGLEFT
 10
0.0
 20
0.0
 30
0.0
  9
$PUCSORGRIGHT
 10
0.0
 20
0.0
 30
0.0
  9
$PUCSORGFRONT
 10
0.0
 20
0.0
 30
0.0
  9
$PUCSORGBACK
 10
0.0
 20
0.0
 30
0.0
  9
$USERI1
 70
     0
  9
$USERI2
 70
     0
  9
$USERI3
 70
     0
  9
$USERI4
 70
     0
  9
$USERI5
 70
     0
  9
$USERR1
 40
0.0
  9
$USERR2
 40
0.0
  9
$USERR3
 40
0.0
  9
$USERR4
 40
0.0
  9
$USERR5
 40
0.0
  9
$WORLDVIEW
 70
     1
  9
$SHADEDGE
 70
     3
  9
$SHADEDIF
 70
    70
  9
$TILEMODE
 70
     1
  9
$MAXACTVP
 70
    64
  9
$PINSBASE
 10
0.0
 20
0.0
 30
0.0
  9
$PLIMCHECK
 70
     0
  9
$PEXTMIN
 10
-350.0
 20
-349.9999999999
 30
0.0
  9
$PEXTMAX
 10
350.0
 20
350.0000000001
 30
0.0
  9
$PLIMMIN
 10
-421.7948717949
 20
-376.923076923
  9
$PLIMMAX
 10
644.358974359
 20
376.9230769232
  9
$UNITMODE
 70
     0
  9
$VISRETAIN
 70
     1
  9
$PLINEGEN
 70
     0
  9
$PSLTSCALE
 70
     1
  9
$TREEDEPTH
 70
  3020
  9
$CMLSTYLE
  2
Standard
  9
$CMLJUST
 70
     0
  9
$CMLSCALE
 40
20.0
  9
$PROXYGRAPHICS
 70
     1
  9
$MEASUREMENT
 70
     1
  9
$CELWEIGHT
370
    -1
  9
$ENDCAPS
280
     0
  9
$JOINSTYLE
280
     0
  9
$LWDISPLAY
290
     1
  9
$INSUNITS
 70
     4
  9
$HYPERLINKBASE
  1

  9
$STYLESHEET
  1

  9
$XEDIT
290
     1
  9
$CEPSNTYPE
380
     0
  9
$PSTYLEMODE
290
     1
  9
$FINGERPRINTGUID
  2
{F3C0B964-2EC4-46CA-A06A-E11A6421A53A}
  9
$VERSIONGUID
  2
{FAEB1C32-E019-11D5-929B-00C0DF256EC4}
  9
$EXTNAMES
290
     1
  9
$PSVPSCALE
 40
0.0
  9
$OLESTARTUP
290
     0
  0
ENDSEC
  0
SECTION
  2
CLASSES
  0
CLASS
  1
ACDBDICTIONARYWDFLT
  2
AcDbDictionaryWithDefault
  3
ObjectDBX Classes
 90
        0
280
     0
281
     0
  0
CLASS
  1
VISUALSTYLE
  2
AcDbVisualStyle
  3
ObjectDBX Classes
 90
     4095
280
     0
281
     0
  0
CLASS
  1
MATERIAL
  2
AcDbMaterial
  3
ObjectDBX Classes
 90
     1153
280
     0
281
     0
  0
CLASS
  1
SCALE
  2
AcDbScale
  3
ObjectDBX Classes
 90
     1153
280
     0
281
     0
  0
CLASS
  1
TABLESTYLE
  2
AcDbTableStyle
  3
ObjectDBX Classes
 90
     4095
280
     0
281
     0
  0
CLASS
  1
MLEADERSTYLE
  2
AcDbMLeaderStyle
  3
ACDB_MLEADERSTYLE_CLASS
 90
     4095
280
     0
281
     0
  0
CLASS
  1
SUN
  2
AcDbSun
  3
SCENEOE
 90
     1153
280
     0
281
     0
  0
CLASS
  1
ACDBPLACEHOLDER
  2
AcDbPlaceHolder
  3
ObjectDBX Classes
 90
        0
280
     0
281
     0
  0
CLASS
  1
LAYOUT
  2
AcDbLayout
  3
ObjectDBX Classes
 90
        0
280
     0
281
     0
  0
ENDSEC
  0
SECTION
  2
TABLES
  0
TABLE
  2
VPORT
  5
8
330
0
100
AcDbSymbolTable
 70
     1
  0
VPORT
  5
29
330
8
100
AcDbSymbolTableRecord
100
AcDbViewportTableRecord
  2
*Active
 70
     0
 10
0.0
 20
0.0
 11
1.0
 21
1.0
 12
0.0
 22
0.0000000001
 13
0.0
 23
0.0
 14
10.0
 24
10.0
 15
10.0
 25
10.0
 16
0.0
 26
0.0
 36
1.0
 17
0.0
 27
0.0
 37
0.0
 40
714.0
 41
1.0
 42
50.0
 43
0.0
 44
0.0
 50
0.0
 51
0.0
 71
     0
 72
   100
 73
     1
 74
     3
 75
     0
 76
     0
 77
     0
 78
     0
281
     0
 65
     1
110
0.0
120
0.0
130
0.0
111
1.0
121
0.0
131
0.0
112
0.0
122
1.0
132
0.0
 79
     0
146
0.0
  0
ENDTAB
  0
TABLE
  2
LTYPE
  5
5
330
0
100
AcDbSymbolTable
 70
     6
  0
LTYPE
  5
14
330
5
100
AcDbSymbolTableRecord
100
AcDbLinetypeTableRecord
  2
ByBlock
 70
     0
  3

 72
    65
 73
     0
 40
0.0
  0
LTYPE
  5
15
330
5
100
AcDbSymbolTableRecord
100
AcDbLinetypeTableRecord
  2
ByLayer
 70
     0
  3

 72
    65
 73
     0
 40
0.0
  0
LTYPE
  5
16
330
5
100
AcDbSymbolTableRecord
100
AcDbLinetypeTableRecord
  2
Continuous
 70
     0
  3
Solid line
 72
    65
 73
     0
 40
0.0
  0
LTYPE
  5
6E
330
5
100
AcDbSymbolTableRecord
100
AcDbLinetypeTableRecord
  2
HIDDEN
 70
     0
  3
Hidden __ __ __ __ __ __ __ __ __ __ __ __ __ __
 72
    65
 73
     2
 40
1.905
 49
1.27
 74
     0
 49
-0.635
 74
     0
  0
LTYPE
  5
6F
330
5
100
AcDbSymbolTableRecord
100
AcDbLinetypeTableRecord
  2
PHANTOM
 70
     0
  3
Phantom ______  __  __  ______  __  __  ______
 72
    65
 73
     6
 40
12.7
 49
6.35
 74
     0
 49
-1.27
 74
     0
 49
1.27
 74
     0
 49
-1.27
 74
     0
 49
1.27
 74
     0
 49
-1.27
 74
     0
  0
LTYPE
  5
70
330
5
100
AcDbSymbolTableRecord
100
AcDbLinetypeTableRecord
  2
CENTER
 70
     0
  3
Center ____ _ ____ _ ____ _ ____ _ ____ _ ____
 72
    65
 73
     4
 40
10.16
 49
6.35
 74
     0
 49
-1.27
 74
     0
 49
1.27
 74
     0
 49
-1.27
 74
     0
  0
LTYPE
  5
71
330
5
100
AcDbSymbolTableRecord
100
AcDbLinetypeTableRecord
  2
CENTERX2
 70
     0
  3
Center (2x) ________  __  ________  __  _____
 72
    65
 73
     4
 40
20.32
 49
12.7
 74
     0
 49
-2.54
 74
     0
 49
2.54
 74
     0
 49
-2.54
 74
     0
  0
LTYPE
  5
72
330
5
100
AcDbSymbolTableRecord
100
AcDbLinetypeTableRecord
  2
DOT2
 70
     0
  3
Dot (.5x) ........................................
 72
    65
 73
     2
 40
0.635
 49
0.0
 74
     0
 49
-0.635
 74
     0
  0
ENDTAB
  0
TABLE
  2
LAYER
  5
2
330
0
100
AcDbSymbolTable
 70
     1
  0
LAYER
  5
10
330
2
100
AcDbSymbolTableRecord
100
AcDbLayerTableRecord
  2
0
 70
     0
 62
     7
  6
Continuous
370
    -3
390
F
  0
ENDTAB
  0
TABLE
  2
STYLE
  5
3
330
0
100
AcDbSymbolTable
 70
     1
  0
STYLE
  5
11
330
3
100
AcDbSymbolTableRecord
100
AcDbTextStyleTableRecord
  2
Standard
 70
     0
 40
0.0
 41
1.0
 50
0.0
 71
     0
 42
4.0
  3
txt
  4

  0
ENDTAB
  0
TABLE
  2
VIEW
  5
6
330
0
100
AcDbSymbolTable
 70
     0
  0
ENDTAB
  0
TABLE
  2
UCS
  5
7
330
0
100
AcDbSymbolTable
 70
     0
  0
ENDTAB
  0
TABLE
  2
APPID
  5
9
330
0
100
AcDbSymbolTable
 70
     1
  0
APPID
  5
12
330
9
100
AcDbSymbolTableRecord
100
AcDbRegAppTableRecord
  2
ACAD
 70
     0
  0
ENDTAB
  0
TABLE
  2
DIMSTYLE
  5
A
330
0
100
AcDbSymbolTable
 70
     1
100
AcDbDimStyleTable
  0
DIMSTYLE
105
27
330
A
100
AcDbSymbolTableRecord
100
AcDbDimStyleTableRecord
  2
ISO-25
 70
     0
 41
2.5
 42
0.625
 43
3.75
 44
1.25
 73
     0
 74
     0
 77
     1
 78
     8
140
2.5
141
2.5
143
0.0393700787
147
0.625
171
     3
172
     1
178
     0
271
     2
272
     2
274
     3
278
    44
283
     0
284
     8
340
11
  0
ENDTAB
  0
TABLE
  2
BLOCK_RECORD
  5
1
330
0
100
AcDbSymbolTable
 70
    10
  0
BLOCK_RECORD
  5
1F
330
1
100
AcDbSymbolTableRecord
100
AcDbBlockTableRecord
  2
*Model_Space
340
22
  0
BLOCK_RECORD
  5
1B
330
1
100
AcDbSymbolTableRecord
100
AcDbBlockTableRecord
  2
*Paper_Space
340
1E
  0
BLOCK_RECORD
  5
23
330
1
100
AcDbSymbolTableRecord
100
AcDbBlockTableRecord
  2
*Paper_Space0
340
26
  0
BLOCK_RECORD
  5
11B
330
1
100
AcDbSymbolTableRecord
100
AcDbBlockTableRecord
  2
*Paper_Space1
340
11C
  0
BLOCK_RECORD
  5
127
330
1
100
AcDbSymbolTableRecord
100
AcDbBlockTableRecord
  2
*Paper_Space2
340
128
  0
BLOCK_RECORD
  5
141
330
1
100
AcDbSymbolTableRecord
100
AcDbBlockTableRecord
  2
*Paper_Space3
340
142
  0
BLOCK_RECORD
  5
17D
330
1
100
AcDbSymbolTableRecord
100
AcDbBlockTableRecord
  2
*Paper_Space4
340
17E
  0
BLOCK_RECORD
  5
1C0
330
1
100
AcDbSymbolTableRecord
100
AcDbBlockTableRecord
  2
*Paper_Space5
340
1C1
  0
BLOCK_RECORD
  5
1D8
330
1
100
AcDbSymbolTableRecord
100
AcDbBlockTableRecord
  2
*Paper_Space6
340
1D9
  0
BLOCK_RECORD
  5
1E4
330
1
100
AcDbSymbolTableRecord
100
AcDbBlockTableRecord
  2
*Paper_Space7
340
1E5
  0
BLOCK_RECORD
  5
263
330
1
100
AcDbSymbolTableRecord
100
AcDbBlockTableRecord
  2
*Paper_Space8
340
264
  0
BLOCK_RECORD
  5
2DF
330
1
100
AcDbSymbolTableRecord
100
AcDbBlockTableRecord
  2
*Paper_Space9
340
2E0
  0
ENDTAB
  0
ENDSEC
  0
SECTION
  2
BLOCKS
  0
BLOCK
  5
20
330
1F
100
AcDbEntity
  8
0
100
AcDbBlockBegin
  2
*Model_Space
 70
     0
 10
0.0
 20
0.0
 30
0.0
  3
*Model_Space
  1

  0
ENDBLK
  5
21
330
1F
100
AcDbEntity
  8
0
100
AcDbBlockEnd
  0
BLOCK
  5
1C
330
1B
100
AcDbEntity
 67
     1
  8
0
100
AcDbBlockBegin
  2
*Paper_Space
 70
     0
 10
0.0
 20
0.0
 30
0.0
  3
*Paper_Space
  1

  0
ENDBLK
  5
1D
330
1B
100
AcDbEntity
 67
     1
  8
0
100
AcDbBlockEnd
  0
BLOCK
  5
24
330
23
100
AcDbEntity
  8
0
100
AcDbBlockBegin
  2
*Paper_Space0
 70
     0
 10
0.0
 20
0.0
 30
0.0
  3
*Paper_Space0
  1

  0
CIRCLE
  5
FA
330
23
100
AcDbEntity
  8
0
  6
Continuous
 62
     7
370
    25
100
AcDbCircle
 10
0.0
 20
-145.0
 30
0.0
 40
6.50000000000001
  0
CIRCLE
  5
FB
330
23
100
AcDbEntity
  8
0
  6
Continuous
 62
     7
370
    25
100
AcDbCircle
 10
-145.0
 20
0.0
 30
0.0
 40
6.5
  0
CIRCLE
  5
FC
330
23
100
AcDbEntity
  8
0
  6
Continuous
 62
     7
370
    25
100
AcDbCircle
 10
0.0
 20
145.0
 30
0.0
 40
6.50000000000006
  0
CIRCLE
  5
FD
330
23
100
AcDbEntity
  8
0
  6
Continuous
 62
     7
370
    25
100
AcDbCircle
 10
145.0
 20
0.0
 30
0.0
 40
6.500000000000057
  0
CIRCLE
  5
FE
330
23
100
AcDbEntity
  8
0
  6
Continuous
 62
     7
370
    25
100
AcDbCircle
 10
0.0
 20
0.0000000001
 30
0.0
 40
349.9999999999994
  0
CIRCLE
  5
FF
330
23
100
AcDbEntity
  8
0
  6
Continuous
 62
     7
370
    25
100
AcDbCircle
 10
0.0
 20
0.0
 30
0.0
 40
15.0
  0
CIRCLE
  5
100
330
23
100
AcDbEntity
  8
0
  6
Continuous
 62
     7
370
    25
100
AcDbCircle
 10
0.0
 20
-118.0
 30
0.0
 40
15.00000000000001
  0
CIRCLE
  5
101
330
23
100
AcDbEntity
  8
0
  6
Continuous
 62
     7
370
    25
100
AcDbCircle
 10
0.0
 20
220.0
 30
0.0
 40
15.00000000000001
  0
LINE
  5
103
330
23
100
AcDbEntity
  8
0
  6
Continuous
 62
     7
370
    25
100
AcDbLine
 10
-135.0890361324
 20
-173.216489737
 30
0.0
 11
-45.9773095544
 21
-84.1373104285
 31
0.0
  0
LINE
  5
104
330
23
100
AcDbEntity
  8
0
  6
Continuous
 62
     7
370
    25
100
AcDbLine
 10
-84.1541006866
 20
-45.9465704665
 30
0.0
 11
-173.2658272646
 21
-135.025749775
 31
0.0
  0
LINE
  5
105
330
23
100
AcDbEntity
  8
0
  6
Continuous
 62
     7
370
    25
100
AcDbLine
 10
173.216489737
 20
-135.0890361324
 30
0.0
 11
84.1373104285
 21
-45.9773095544
 31
0.0
  0
LINE
  5
106
330
23
100
AcDbEntity
  8
0
  6
Continuous
 62
     7
370
    25
100
AcDbLine
 10
45.9465704665
 20
-84.1541006866
 30
0.0
 11
135.025749775
 21
-173.2658272646
 31
0.0
  0
LINE
  5
107
330
23
100
AcDbEntity
  8
0
  6
Continuous
 62
     7
370
    25
100
AcDbLine
 10
135.0890361324
 20
173.216489737
 30
0.0
 11
45.9773095544
 21
84.1373104285
 31
0.0
  0
LINE
  5
108
330
23
100
AcDbEntity
  8
0
  6
Continuous
 62
     7
370
    25
100
AcDbLine
 10
84.1541006866
 20
45.9465704665
 30
0.0
 11
173.2658272646
 21
135.025749775
 31
0.0
  0
LINE
  5
109
330
23
100
AcDbEntity
  8
0
  6
Continuous
 62
     7
370
    25
100
AcDbLine
 10
-173.216489737
 20
135.0890361324
 30
0.0
 11
-84.1373104285
 21
45.9773095544
 31
0.0
  0
LINE
  5
10A
330
23
100
AcDbEntity
  8
0
  6
Continuous
 62
     7
370
    25
100
AcDbLine
 10
-45.9465704665
 20
84.1541006866
 30
0.0
 11
-135.025749775
 21
173.2658272646
 31
0.0
  0
ARC
  5
10B
330
23
100
AcDbEntity
  8
0
  6
Continuous
 62
     7
370
    25
100
AcDbCircle
 10
0.0
 20
-193.4575448474
 30
0.0
 40
126.5424551525689
100
AcDbArc
 50
235.7256764867
 51
304.2743235133
  0
ARC
  5
10C
330
23
100
AcDbEntity
  8
0
  6
Continuous
 62
     7
370
    25
100
AcDbCircle
 10
60.0
 20
-281.4989825341
 30
0.0
 40
20.00000000000004
100
AcDbArc
 50
304.2743235133
 51
124.2743235133
  0
ARC
  5
10D
330
23
100
AcDbEntity
  8
0
  6
Continuous
 62
     7
370
    25
100
AcDbCircle
 10
0.0
 20
-193.4575448474
 30
0.0
 40
86.54245515257
100
AcDbArc
 50
235.7256764867
 51
304.2743235133
  0
ARC
  5
10E
330
23
100
AcDbEntity
  8
0
  6
Continuous
 62
     7
370
    25
100
AcDbCircle
 10
-60.0
 20
-281.4989825341
 30
0.0
 40
20.0
100
AcDbArc
 50
55.7256764867
 51
235.7256764867
  0
ARC
  5
10F
330
23
100
AcDbEntity
  8
0
  6
Continuous
 62
     7
370
    25
100
AcDbCircle
 10
0.0
 20
193.4575448474
 30
0.0
 40
86.54245515257013
100
AcDbArc
 50
55.7256764867
 51
124.2743235133
  0
ARC
  5
110
330
23
100
AcDbEntity
  8
0
  6
Continuous
 62
     7
370
    25
100
AcDbCircle
 10
60.0
 20
281.4989825341
 30
0.0
 40
19.99999999999997
100
AcDbArc
 50
235.7256764867
 51
55.7256764867
  0
ARC
  5
111
330
23
100
AcDbEntity
  8
0
  6
Continuous
 62
     7
370
    25
100
AcDbCircle
 10
0.0
 20
193.4575448474
 30
0.0
 40
126.5424551525692
100
AcDbArc
 50
55.7256764867
 51
124.2743235133
  0
ARC
  5
112
330
23
100
AcDbEntity
  8
0
  6
Continuous
 62
     7
370
    25
100
AcDbCircle
 10
-60.0
 20
281.4989825341
 30
0.0
 40
20.00000000000005
100
AcDbArc
 50
124.2743235133
 51
304.2743235133
  0
ARC
  5
113
330
23
100
AcDbEntity
  8
0
  6
Continuous
 62
     7
370
    25
100
AcDbCircle
 10
-65.0657051205
 20
-65.0419404475
 30
0.0
 40
27.00000000000025
100
AcDbArc
 50
314.9895347007
 51
134.9895347007
  0
ARC
  5
114
330
23
100
AcDbEntity
  8
0
  6
Continuous
 62
     7
370
    25
100
AcDbCircle
 10
-154.1774316985
 20
-154.121119756
 30
0.0
 40
27.0
100
AcDbArc
 50
134.9895347007
 51
314.9895347007
  0
ARC
  5
115
330
23
100
AcDbEntity
  8
0
  6
Continuous
 62
     7
370
    25
100
AcDbCircle
 10
65.0419404475
 20
-65.0657051205
 30
0.0
 40
27.00000000000048
100
AcDbArc
 50
44.9895347007
 51
224.9895347007
  0
ARC
  5
116
330
23
100
AcDbEntity
  8
0
  6
Continuous
 62
     7
370
    25
100
AcDbCircle
 10
65.0657051205
 20
65.0419404475
 30
0.0
 40
26.99999999999998
100
AcDbArc
 50
134.9895347007
 51
314.9895347007
  0
ARC
  5
117
330
23
100
AcDbEntity
  8
0
  6
Continuous
 62
     7
370
    25
100
AcDbCircle
 10
154.1774316985
 20
154.121119756
 30
0.0
 40
27.00000000000002
100
AcDbArc
 50
314.9895347007
 51
134.9895347007
  0
ARC
  5
118
330
23
100
AcDbEntity
  8
0
  6
Continuous
 62
     7
370
    25
100
AcDbCircle
 10
-65.0419404475
 20
65.0657051205
 30
0.0
 40
26.99999999999999
100
AcDbArc
 50
224.9895347007
 51
44.9895347007
  0
ARC
  5
119
330
23
100
AcDbEntity
  8
0
  6
Continuous
 62
     7
370
    25
100
AcDbCircle
 10
-154.121119756
 20
154.1774316985
 30
0.0
 40
27.00000000000004
100
AcDbArc
 50
44.9895347007
 51
224.9895347007
  0
ARC
  5
11A
330
23
100
AcDbEntity
  8
0
  6
Continuous
 62
     7
370
    25
100
AcDbCircle
 10
154.121119756
 20
-154.1774316985
 30
0.0
 40
27.00000000000004
100
AcDbArc
 50
224.9895347007
 51
44.9895347007
  0
VIEWPORT
  5
36F
330
23
100
AcDbEntity
  8
0
100
AcDbViewport
 10
0.0
 20
0.0
 30
0.0
 40
205.6
 41
156.0
 68
     1
 69
     1
 12
0.0
 22
0.0000000001
 13
0.0
 23
0.0
 14
10.0
 24
10.0
 15
10.0
 25
10.0
 16
0.0
 26
0.0
 36
1.0
 17
0.0
 27
0.0
 37
0.0
 42
50.0
 43
0.0
 44
0.0
 45
714.0
 50
0.0
 51
0.0
 72
   100
 90
   557152
  1

281
     0
 71
     1
 74
     0
110
0.0
120
0.0
130
0.0
111
1.0
121
0.0
131
0.0
112
0.0
122
1.0
132
0.0
 79
     0
146
0.0
  0
ENDBLK
  5
25
330
23
100
AcDbEntity
  8
0
100
AcDbBlockEnd
  0
BLOCK
  5
11D
330
11B
100
AcDbEntity
  8
0
100
AcDbBlockBegin
  2
*Paper_Space1
 70
     0
 10
0.0
 20
0.0
 30
0.0
  3
*Paper_Space1
  1

  0
LINE
  5
123
330
11B
100
AcDbEntity
  8
0
  6
Continuous
 62
     7
370
    25
100
AcDbLine
 10
350.0
 20
0.0
 30
0.0
 11
350.0
 21
8.0
 31
0.0
  0
LINE
  5
124
330
11B
100
AcDbEntity
  8
0
  6
Continuous
 62
     7
370
    25
100
AcDbLine
 10
-350.0
 20
8.0
 30
0.0
 11
-350.0
 21
0.0
 31
0.0
  0
LINE
  5
125
330
11B
100
AcDbEntity
  8
0
  6
Continuous
 62
     7
370
    25
100
AcDbLine
 10
350.0
 20
0.0
 30
0.0
 11
-350.0
 21
0.0
 31
0.0
  0
LINE
  5
126
330
11B
100
AcDbEntity
  8
0
  6
Continuous
 62
     7
370
    25
100
AcDbLine
 10
350.0
 20
8.0
 30
0.0
 11
-350.0
 21
8.0
 31
0.0
  0
VIEWPORT
  5
371
330
11B
100
AcDbEntity
  8
0
100
AcDbViewport
 10
0.0
 20
0.0
 30
0.0
 40
205.6
 41
156.0
 68
     1
 69
     1
 12
0.0
 22
0.0000000001
 13
0.0
 23
0.0
 14
10.0
 24
10.0
 15
10.0
 25
10.0
 16
0.0
 26
0.0
 36
1.0
 17
0.0
 27
0.0
 37
0.0
 42
50.0
 43
0.0
 44
0.0
 45
714.0
 50
0.0
 51
0.0
 72
   100
 90
   557152
  1

281
     0
 71
     1
 74
     0
110
0.0
120
0.0
130
0.0
111
1.0
121
0.0
131
0.0
112
0.0
122
1.0
132
0.0
 79
     0
146
0.0
  0
ENDBLK
  5
11E
330
11B
100
AcDbEntity
  8
0
100
AcDbBlockEnd
  0
BLOCK
  5
129
330
127
100
AcDbEntity
  8
0
100
AcDbBlockBegin
  2
*Paper_Space2
 70
     0
 10
0.0
 20
0.0
 30
0.0
  3
*Paper_Space2
  1

  0
LINE
  5
12B
330
127
100
AcDbEntity
  8
0
  6
Continuous
 62
     7
100
AcDbLine
 10
0.0
 20
-10.0
 30
0.0
 11
0.0
 21
-14.266241168
 31
0.0
  0
LINE
  5
12C
330
127
100
AcDbEntity
  8
0
  6
Continuous
 62
     7
100
AcDbLine
 10
0.0
 20
-14.266241168
 30
0.0
 11
3.3848101122
 21
-10.0
 31
0.0
  0
LINE
  5
12D
330
127
100
AcDbEntity
  8
0
  6
Continuous
 62
     7
100
AcDbLine
 10
3.3848101122
 20
-10.0
 30
0.0
 11
0.0
 21
-10.0
 31
0.0
  0
LINE
  5
12E
330
127
100
AcDbEntity
  8
0
  6
Continuous
 62
     7
100
AcDbLine
 10
0.0
 20
10.0177751905
 30
0.0
 11
2.4818627683
 21
10.0177751905
 31
0.0
  0
LINE
  5
12F
330
127
100
AcDbEntity
  8
0
  6
Continuous
 62
     7
100
AcDbLine
 10
2.4818627683
 20
10.0177751905
 30
0.0
 11
0.0
 21
14.1512830355
 31
0.0
  0
LINE
  5
130
330
127
100
AcDbEntity
  8
0
  6
Continuous
 62
     7
100
AcDbLine
 10
0.0
 20
14.1512830355
 30
0.0
 11
0.0
 21
10.0177751905
 31
0.0
  0
LINE
  5
131
330
127
100
AcDbEntity
  8
0
  6
Continuous
 62
     7
100
AcDbLine
 10
0.0
 20
10.0177751905
 30
0.0
 11
-0.0442407849
 21
10.0177751905
 31
0.0
  0
LINE
  5
132
330
127
100
AcDbEntity
  8
0
  6
CENTERX2
 62
     7
100
AcDbLine
 10
-7.6733003523
 20
0.0
 30
0.0
 11
12.7066548223
 21
0.0
 31
0.0
  0
LINE
  5
133
330
127
100
AcDbEntity
  8
0
  6
CENTERX2
 62
     7
100
AcDbLine
 10
0.0
 20
-145.0
 30
0.0
 11
25.2287527018
 21
-145.0
 31
0.0
  0
LINE
  5
134
330
127
100
AcDbEntity
  8
0
  6
Continuous
 62
     7
100
AcDbLine
 10
8.0
 20
-151.5
 30
0.0
 11
8.0
 21
-159.0
 31
0.0
  0
LINE
  5
135
330
127
100
AcDbEntity
  8
0
  6
Continuous
 62
     7
100
AcDbLine
 10
8.0
 20
-159.0
 30
0.0
 11
0.5
 21
-151.5
 31
0.0
  0
LINE
  5
136
330
127
100
AcDbEntity
  8
0
  6
Continuous
 62
     7
100
AcDbLine
 10
0.5
 20
-151.5
 30
0.0
 11
8.0
 21
-151.5
 31
0.0
  0
LINE
  5
13D
330
127
100
AcDbEntity
  8
0
  6
Continuous
 62
     7
370
    25
100
AcDbLine
 10
0.0
 20
-350.0
 30
0.0
 11
8.0
 21
-350.0
 31
0.0
  0
LINE
  5
13E
330
127
100
AcDbEntity
  8
0
  6
Continuous
 62
     7
370
    25
100
AcDbLine
 10
8.0
 20
350.0
 30
0.0
 11
0.0
 21
350.0
 31
0.0
  0
LINE
  5
13F
330
127
100
AcDbEntity
  8
0
  6
Continuous
 62
     7
370
    25
100
AcDbLine
 10
0.0
 20
-350.0
 30
0.0
 11
0.0
 21
350.0
 31
0.0
  0
LINE
  5
140
330
127
100
AcDbEntity
  8
0
  6
Continuous
 62
     7
370
    25
100
AcDbLine
 10
8.0
 20
-350.0
 30
0.0
 11
8.0
 21
350.0
 31
0.0
  0
VIEWPORT
  5
373
330
127
100
AcDbEntity
  8
0
100
AcDbViewport
 10
0.0
 20
0.0
 30
0.0
 40
205.6
 41
156.0
 68
     1
 69
     1
 12
0.0
 22
0.0000000001
 13
0.0
 23
0.0
 14
10.0
 24
10.0
 15
10.0
 25
10.0
 16
0.0
 26
0.0
 36
1.0
 17
0.0
 27
0.0
 37
0.0
 42
50.0
 43
0.0
 44
0.0
 45
714.0
 50
0.0
 51
0.0
 72
   100
 90
   557152
  1

281
     0
 71
     1
 74
     0
110
0.0
120
0.0
130
0.0
111
1.0
121
0.0
131
0.0
112
0.0
122
1.0
132
0.0
 79
     0
146
0.0
  0
ENDBLK
  5
12A
330
127
100
AcDbEntity
  8
0
100
AcDbBlockEnd
  0
BLOCK
  5
143
330
141
100
AcDbEntity
  8
0
100
AcDbBlockBegin
  2
*Paper_Space3
 70
     0
 10
0.0
 20
0.0
 30
0.0
  3
*Paper_Space3
  1

  0
CIRCLE
  5
15C
330
141
100
AcDbEntity
  8
0
  6
Continuous
 62
     7
370
    25
100
AcDbCircle
 10
0.0
 20
-145.0
 30
0.0
 40
6.50000000000001
  0
CIRCLE
  5
15D
330
141
100
AcDbEntity
  8
0
  6
Continuous
 62
     7
370
    25
100
AcDbCircle
 10
-145.0
 20
0.0
 30
0.0
 40
6.5
  0
CIRCLE
  5
15E
330
141
100
AcDbEntity
  8
0
  6
Continuous
 62
     7
370
    25
100
AcDbCircle
 10
0.0
 20
145.0
 30
0.0
 40
6.50000000000006
  0
CIRCLE
  5
15F
330
141
100
AcDbEntity
  8
0
  6
Continuous
 62
     7
370
    25
100
AcDbCircle
 10
145.0
 20
0.0
 30
0.0
 40
6.500000000000057
  0
CIRCLE
  5
160
330
141
100
AcDbEntity
  8
0
  6
Continuous
 62
     7
370
    25
100
AcDbCircle
 10
0.0
 20
0.0000000001
 30
0.0
 40
349.9999999999994
  0
CIRCLE
  5
161
330
141
100
AcDbEntity
  8
0
  6
Continuous
 62
     7
370
    25
100
AcDbCircle
 10
0.0
 20
0.0
 30
0.0
 40
15.0
  0
CIRCLE
  5
162
330
141
100
AcDbEntity
  8
0
  6
Continuous
 62
     7
370
    25
100
AcDbCircle
 10
0.0
 20
-118.0
 30
0.0
 40
15.00000000000001
  0
CIRCLE
  5
163
330
141
100
AcDbEntity
  8
0
  6
Continuous
 62
     7
370
    25
100
AcDbCircle
 10
0.0
 20
220.0
 30
0.0
 40
15.00000000000001
  0
LINE
  5
165
330
141
100
AcDbEntity
  8
0
  6
Continuous
 62
     7
370
    25
100
AcDbLine
 10
-135.0890361324
 20
-173.216489737
 30
0.0
 11
-45.9773095544
 21
-84.1373104285
 31
0.0
  0
LINE
  5
166
330
141
100
AcDbEntity
  8
0
  6
Continuous
 62
     7
370
    25
100
AcDbLine
 10
-84.1541006866
 20
-45.9465704665
 30
0.0
 11
-173.2658272646
 21
-135.025749775
 31
0.0
  0
LINE
  5
167
330
141
100
AcDbEntity
  8
0
  6
Continuous
 62
     7
370
    25
100
AcDbLine
 10
173.216489737
 20
-135.0890361324
 30
0.0
 11
84.1373104285
 21
-45.9773095544
 31
0.0
  0
LINE
  5
168
330
141
100
AcDbEntity
  8
0
  6
Continuous
 62
     7
370
    25
100
AcDbLine
 10
45.9465704665
 20
-84.1541006866
 30
0.0
 11
135.025749775
 21
-173.2658272646
 31
0.0
  0
LINE
  5
169
330
141
100
AcDbEntity
  8
0
  6
Continuous
 62
     7
370
    25
100
AcDbLine
 10
135.0890361324
 20
173.216489737
 30
0.0
 11
45.9773095544
 21
84.1373104285
 31
0.0
  0
LINE
  5
16A
330
141
100
AcDbEntity
  8
0
  6
Continuous
 62
     7
370
    25
100
AcDbLine
 10
84.1541006866
 20
45.9465704665
 30
0.0
 11
173.2658272646
 21
135.025749775
 31
0.0
  0
LINE
  5
16B
330
141
100
AcDbEntity
  8
0
  6
Continuous
 62
     7
370
    25
100
AcDbLine
 10
-173.216489737
 20
135.0890361324
 30
0.0
 11
-84.1373104285
 21
45.9773095544
 31
0.0
  0
LINE
  5
16C
330
141
100
AcDbEntity
  8
0
  6
Continuous
 62
     7
370
    25
100
AcDbLine
 10
-45.9465704665
 20
84.1541006866
 30
0.0
 11
-135.025749775
 21
173.2658272646
 31
0.0
  0
ARC
  5
16D
330
141
100
AcDbEntity
  8
0
  6
Continuous
 62
     7
370
    25
100
AcDbCircle
 10
0.0
 20
-193.4575448474
 30
0.0
 40
126.5424551525689
100
AcDbArc
 50
235.7256764867
 51
304.2743235133
  0
ARC
  5
16E
330
141
100
AcDbEntity
  8
0
  6
Continuous
 62
     7
370
    25
100
AcDbCircle
 10
60.0
 20
-281.4989825341
 30
0.0
 40
20.00000000000004
100
AcDbArc
 50
304.2743235133
 51
124.2743235133
  0
ARC
  5
16F
330
141
100
AcDbEntity
  8
0
  6
Continuous
 62
     7
370
    25
100
AcDbCircle
 10
0.0
 20
-193.4575448474
 30
0.0
 40
86.54245515257
100
AcDbArc
 50
235.7256764867
 51
304.2743235133
  0
ARC
  5
170
330
141
100
AcDbEntity
  8
0
  6
Continuous
 62
     7
370
    25
100
AcDbCircle
 10
-60.0
 20
-281.4989825341
 30
0.0
 40
20.0
100
AcDbArc
 50
55.7256764867
 51
235.7256764867
  0
ARC
  5
171
330
141
100
AcDbEntity
  8
0
  6
Continuous
 62
     7
370
    25
100
AcDbCircle
 10
0.0
 20
193.4575448474
 30
0.0
 40
86.54245515257013
100
AcDbArc
 50
55.7256764867
 51
124.2743235133
  0
ARC
  5
172
330
141
100
AcDbEntity
  8
0
  6
Continuous
 62
     7
370
    25
100
AcDbCircle
 10
60.0
 20
281.4989825341
 30
0.0
 40
19.99999999999997
100
AcDbArc
 50
235.7256764867
 51
55.7256764867
  0
ARC
  5
173
330
141
100
AcDbEntity
  8
0
  6
Continuous
 62
     7
370
    25
100
AcDbCircle
 10
0.0
 20
193.4575448474
 30
0.0
 40
126.5424551525692
100
AcDbArc
 50
55.7256764867
 51
124.2743235133
  0
ARC
  5
174
330
141
100
AcDbEntity
  8
0
  6
Continuous
 62
     7
370
    25
100
AcDbCircle
 10
-60.0
 20
281.4989825341
 30
0.0
 40
20.00000000000005
100
AcDbArc
 50
124.2743235133
 51
304.2743235133
  0
ARC
  5
175
330
141
100
AcDbEntity
  8
0
  6
Continuous
 62
     7
370
    25
100
AcDbCircle
 10
-65.0657051205
 20
-65.0419404475
 30
0.0
 40
27.00000000000025
100
AcDbArc
 50
314.9895347007
 51
134.9895347007
  0
ARC
  5
176
330
141
100
AcDbEntity
  8
0
  6
Continuous
 62
     7
370
    25
100
AcDbCircle
 10
-154.1774316985
 20
-154.121119756
 30
0.0
 40
27.0
100
AcDbArc
 50
134.9895347007
 51
314.9895347007
  0
ARC
  5
177
330
141
100
AcDbEntity
  8
0
  6
Continuous
 62
     7
370
    25
100
AcDbCircle
 10
65.0419404475
 20
-65.0657051205
 30
0.0
 40
27.00000000000048
100
AcDbArc
 50
44.9895347007
 51
224.9895347007
  0
ARC
  5
178
330
141
100
AcDbEntity
  8
0
  6
Continuous
 62
     7
370
    25
100
AcDbCircle
 10
65.0657051205
 20
65.0419404475
 30
0.0
 40
26.99999999999998
100
AcDbArc
 50
134.9895347007
 51
314.9895347007
  0
ARC
  5
179
330
141
100
AcDbEntity
  8
0
  6
Continuous
 62
     7
370
    25
100
AcDbCircle
 10
154.1774316985
 20
154.121119756
 30
0.0
 40
27.00000000000002
100
AcDbArc
 50
314.9895347007
 51
134.9895347007
  0
ARC
  5
17A
330
141
100
AcDbEntity
  8
0
  6
Continuous
 62
     7
370
    25
100
AcDbCircle
 10
-65.0419404475
 20
65.0657051205
 30
0.0
 40
26.99999999999999
100
AcDbArc
 50
224.9895347007
 51
44.9895347007
  0
ARC
  5
17B
330
141
100
AcDbEntity
  8
0
  6
Continuous
 62
     7
370
    25
100
AcDbCircle
 10
-154.121119756
 20
154.1774316985
 30
0.0
 40
27.00000000000004
100
AcDbArc
 50
44.9895347007
 51
224.9895347007
  0
ARC
  5
17C
330
141
100
AcDbEntity
  8
0
  6
Continuous
 62
     7
370
    25
100
AcDbCircle
 10
154.121119756
 20
-154.1774316985
 30
0.0
 40
27.00000000000004
100
AcDbArc
 50
224.9895347007
 51
44.9895347007
  0
VIEWPORT
  5
375
330
141
100
AcDbEntity
  8
0
100
AcDbViewport
 10
0.0
 20
0.0
 30
0.0
 40
205.6
 41
156.0
 68
     1
 69
     1
 12
0.0
 22
0.0000000001
 13
0.0
 23
0.0
 14
10.0
 24
10.0
 15
10.0
 25
10.0
 16
0.0
 26
0.0
 36
1.0
 17
0.0
 27
0.0
 37
0.0
 42
50.0
 43
0.0
 44
0.0
 45
714.0
 50
0.0
 51
0.0
 72
   100
 90
   557152
  1

281
     0
 71
     1
 74
     0
110
0.0
120
0.0
130
0.0
111
1.0
121
0.0
131
0.0
112
0.0
122
1.0
132
0.0
 79
     0
146
0.0
  0
ENDBLK
  5
144
330
141
100
AcDbEntity
  8
0
100
AcDbBlockEnd
  0
BLOCK
  5
17F
330
17D
100
AcDbEntity
  8
0
100
AcDbBlockBegin
  2
*Paper_Space4
 70
     0
 10
0.0
 20
0.0
 30
0.0
  3
*Paper_Space4
  1

  0
CIRCLE
  5
185
330
17D
100
AcDbEntity
  8
0
  6
Continuous
 62
     7
370
    25
100
AcDbCircle
 10
0.0
 20
0.0000000001
 30
0.0
 40
349.9999999999994
  0
CIRCLE
  5
187
330
17D
100
AcDbEntity
  8
0
  6
Continuous
 62
     7
370
    25
100
AcDbCircle
 10
-145.0
 20
0.0
 30
0.0
 40
14.0
  0
CIRCLE
  5
188
330
17D
100
AcDbEntity
  8
0
  6
Continuous
 62
     7
370
    25
100
AcDbCircle
 10
145.0
 20
0.0
 30
0.0
 40
14.0
  0
CIRCLE
  5
189
330
17D
100
AcDbEntity
  8
0
  6
Continuous
 62
     7
370
    25
100
AcDbCircle
 10
0.0
 20
145.0
 30
0.0
 40
13.99999999999993
  0
CIRCLE
  5
19E
330
17D
100
AcDbEntity
  8
0
  6
Continuous
 62
     7
370
    25
100
AcDbCircle
 10
0.0
 20
0.0
 30
0.0
 40
15.0
  0
CIRCLE
  5
19F
330
17D
100
AcDbEntity
  8
0
  6
Continuous
 62
     7
370
    25
100
AcDbCircle
 10
0.0
 20
220.0
 30
0.0
 40
15.00000000000001
  0
CIRCLE
  5
1A1
330
17D
100
AcDbEntity
  8
0
  6
Continuous
 62
     7
370
    25
100
AcDbCircle
 10
0.0
 20
-145.0
 30
0.0
 40
6.500000000008225
  0
SPLINE
  5
1A2
330
17D
100
AcDbEntity
  8
0
  6
Continuous
 62
     7
370
    25
100
AcDbSpline
210
0.0
220
0.0
230
1.0
 70
     8
 71
     3
 72
    28
 73
    24
 74
     0
 42
0.000000001
 43
0.00000001
 40
0.0
 40
0.0
 40
0.0
 40
0.0
 40
0.125
 40
0.125
 40
0.2499999999999999
 40
0.2499999999999999
 40
0.3125
 40
0.3125
 40
0.3749999999999999
 40
0.3749999999999999
 40
0.4374999999999999
 40
0.4374999999999999
 40
0.4999999999999999
 40
0.4999999999999999
 40
0.6249999999999999
 40
0.6249999999999999
 40
0.6874999999999999
 40
0.6874999999999999
 40
0.7499999999999998
 40
0.7499999999999998
 40
0.8749999999999999
 40
0.8749999999999999
 40
1.0
 40
1.0
 40
1.0
 40
1.0
 10
5.287872088170288
 20
-132.037037037037
 30
0.0
 10
4.909074036056053
 20
-132.1797335079193
 30
0.0
 10
4.517882756051429
 20
-132.3097139363345
 30
0.0
 10
3.703707346193993
 20
-132.5417237434529
 30
0.0
 10
3.280810287261486
 20
-132.643811043434
 30
0.0
 10
2.614041410923545
 20
-132.7722042026969
 30
0.0
 10
2.385231171917916
 20
-132.8109791530787
 30
0.0
 10
1.923458791087048
 20
-132.8779950764682
 30
0.0
 10
1.689914610540966
 20
-132.9063956277793
 30
0.0
 10
1.216999964756065
 20
-132.9524363596231
 30
0.0
 10
0.9776291221544103
 20
-132.97007740628
 30
0.0
 10
0.4925121411936327
 20
-132.9938790191623
 30
0.0
 10
0.2451830990246591
 20
-132.999989840329
 30
0.0
 10
-0.4884991600389224
 20
-133.0000202806105
 30
0.0
 10
-0.9702200133433944
 20
-132.9761968684505
 30
0.0
 10
-1.682814245649262
 20
-132.907215906864
 30
0.0
 10
-1.919916165156017
 20
-132.8784542296652
 30
0.0
 10
-2.381903915839593
 20
-132.8115161979177
 30
0.0
 10
-2.607504597667655
 20
-132.7733393850412
 30
0.0
 10
-3.270472746368913
 20
-132.6460423072286
 30
0.0
 10
-3.694124720424204
 20
-132.5442400769449
 30
0.0
 10
-4.513619457841918
 20
-132.3111395861982
 30
0.0
 10
-4.908645609740108
 20
-132.1798948997823
 30
0.0
 10
-5.287872088170356
 20
-132.037037037037
 30
0.0
  0
CIRCLE
  5
1A3
330
17D
100
AcDbEntity
  8
0
  6
Continuous
 62
     7
370
    25
100
AcDbCircle
 10
0.0
 20
145.0
 30
0.0
 40
6.499999999999987
  0
CIRCLE
  5
1A4
330
17D
100
AcDbEntity
  8
0
  6
Continuous
 62
     7
370
    25
100
AcDbCircle
 10
-145.0
 20
0.0
 30
0.0
 40
6.5
  0
CIRCLE
  5
1A5
330
17D
100
AcDbEntity
  8
0
  6
Continuous
 62
     7
370
    25
100
AcDbCircle
 10
145.0
 20
0.0
 30
0.0
 40
6.500000000000057
  0
LINE
  5
1A6
330
17D
100
AcDbEntity
  8
0
  6
Continuous
 62
     7
370
    25
100
AcDbLine
 10
84.1373104285
 20
45.9773095544
 30
0.0
 11
173.216489737
 21
135.0890361324
 31
0.0
  0
LINE
  5
1A7
330
17D
100
AcDbEntity
  8
0
  6
Continuous
 62
     7
370
    25
100
AcDbLine
 10
135.025749775
 20
173.2658272646
 30
0.0
 11
45.9465704665
 21
84.1541006866
 31
0.0
  0
LINE
  5
1A8
330
17D
100
AcDbEntity
  8
0
  6
Continuous
 62
     7
370
    25
100
AcDbLine
 10
-45.9773095544
 20
84.1373104285
 30
0.0
 11
-135.0890361324
 21
173.216489737
 31
0.0
  0
LINE
  5
1A9
330
17D
100
AcDbEntity
  8
0
  6
Continuous
 62
     7
370
    25
100
AcDbLine
 10
-173.2658272646
 20
135.025749775
 30
0.0
 11
-84.1541006866
 21
45.9465704665
 31
0.0
  0
LINE
  5
1AA
330
17D
100
AcDbEntity
  8
0
  6
Continuous
 62
     7
370
    25
100
AcDbLine
 10
-84.1373104285
 20
-45.9773095544
 30
0.0
 11
-173.216489737
 21
-135.0890361324
 31
0.0
  0
LINE
  5
1AB
330
17D
100
AcDbEntity
  8
0
  6
Continuous
 62
     7
370
    25
100
AcDbLine
 10
-135.025749775
 20
-173.2658272646
 30
0.0
 11
-45.9465704665
 21
-84.1541006866
 31
0.0
  0
LINE
  5
1AC
330
17D
100
AcDbEntity
  8
0
  6
Continuous
 62
     7
370
    25
100
AcDbLine
 10
45.9773095544
 20
-84.1373104285
 30
0.0
 11
135.0890361324
 21
-173.216489737
 31
0.0
  0
LINE
  5
1AD
330
17D
100
AcDbEntity
  8
0
  6
Continuous
 62
     7
370
    25
100
AcDbLine
 10
173.2658272646
 20
-135.025749775
 30
0.0
 11
84.1541006866
 21
-45.9465704665
 31
0.0
  0
ARC
  5
1AE
330
17D
100
AcDbEntity
  8
0
  6
Continuous
 62
     7
370
    25
100
AcDbCircle
 10
-60.0
 20
-281.4989825341
 30
0.0
 40
19.99999999999996
100
AcDbArc
 50
55.7256764867
 51
235.7256764867
  0
ARC
  5
1AF
330
17D
100
AcDbEntity
  8
0
  6
Continuous
 62
     7
370
    25
100
AcDbCircle
 10
0.0
 20
-193.4575448474
 30
0.0
 40
126.5424551525691
100
AcDbArc
 50
235.7256764867
 51
304.2743235133
  0
ARC
  5
1B0
330
17D
100
AcDbEntity
  8
0
  6
Continuous
 62
     7
370
    25
100
AcDbCircle
 10
60.0
 20
-281.4989825341
 30
0.0
 40
20.00000000000002
100
AcDbArc
 50
304.2743235133
 51
124.2743235133
  0
ARC
  5
1B1
330
17D
100
AcDbEntity
  8
0
  6
Continuous
 62
     7
370
    25
100
AcDbCircle
 10
0.0
 20
-193.4575448474
 30
0.0
 40
86.54245515257008
100
AcDbArc
 50
235.7256764867
 51
304.2743235133
  0
ARC
  5
1B2
330
17D
100
AcDbEntity
  8
0
  6
Continuous
 62
     7
370
    25
100
AcDbCircle
 10
0.0
 20
-145.0
 30
0.0
 40
14.00000000000004
100
AcDbArc
 50
112.1916065663
 51
67.8083934337
  0
ARC
  5
1B3
330
17D
100
AcDbEntity
  8
0
  6
Continuous
 62
     7
370
    25
100
AcDbCircle
 10
65.0419404475
 20
65.0657051205
 30
0.0
 40
27.0
100
AcDbArc
 50
135.0104652993
 51
315.0104652993
  0
ARC
  5
1B4
330
17D
100
AcDbEntity
  8
0
  6
Continuous
 62
     7
370
    25
100
AcDbCircle
 10
154.121119756
 20
154.1774316985
 30
0.0
 40
27.00000000000002
100
AcDbArc
 50
315.0104652993
 51
135.0104652993
  0
ARC
  5
1B5
330
17D
100
AcDbEntity
  8
0
  6
Continuous
 62
     7
370
    25
100
AcDbCircle
 10
-65.0657051205
 20
65.0419404475
 30
0.0
 40
27.0
100
AcDbArc
 50
225.0104652993
 51
45.0104652993
  0
ARC
  5
1B6
330
17D
100
AcDbEntity
  8
0
  6
Continuous
 62
     7
370
    25
100
AcDbCircle
 10
-154.1774316985
 20
154.121119756
 30
0.0
 40
27.0
100
AcDbArc
 50
45.0104652993
 51
225.0104652993
  0
ARC
  5
1B7
330
17D
100
AcDbEntity
  8
0
  6
Continuous
 62
     7
370
    25
100
AcDbCircle
 10
-65.0419404475
 20
-65.0657051205
 30
0.0
 40
27.00000000000071
100
AcDbArc
 50
315.0104652993
 51
135.0104652993
  0
ARC
  5
1B8
330
17D
100
AcDbEntity
  8
0
  6
Continuous
 62
     7
370
    25
100
AcDbCircle
 10
-154.121119756
 20
-154.1774316985
 30
0.0
 40
27.00000000000002
100
AcDbArc
 50
135.0104652993
 51
315.0104652993
  0
ARC
  5
1B9
330
17D
100
AcDbEntity
  8
0
  6
Continuous
 62
     7
370
    25
100
AcDbCircle
 10
65.0657051205
 20
-65.0419404475
 30
0.0
 40
27.00000000000035
100
AcDbArc
 50
45.0104652993
 51
225.0104652993
  0
ARC
  5
1BA
330
17D
100
AcDbEntity
  8
0
  6
Continuous
 62
     7
370
    25
100
AcDbCircle
 10
154.1774316985
 20
-154.121119756
 30
0.0
 40
27.00000000000002
100
AcDbArc
 50
225.0104652993
 51
45.0104652993
  0
ARC
  5
1BB
330
17D
100
AcDbEntity
  8
0
  6
Continuous
 62
     7
370
    25
100
AcDbCircle
 10
-60.0
 20
281.4989825341
 30
0.0
 40
19.99999999999999
100
AcDbArc
 50
124.2743235133
 51
304.2743235133
  0
ARC
  5
1BC
330
17D
100
AcDbEntity
  8
0
  6
Continuous
 62
     7
370
    25
100
AcDbCircle
 10
0.0
 20
193.4575448474
 30
0.0
 40
86.54245515256952
100
AcDbArc
 50
55.7256764867
 51
124.2743235133
  0
ARC
  5
1BD
330
17D
100
AcDbEntity
  8
0
  6
Continuous
 62
     7
370
    25
100
AcDbCircle
 10
60.0
 20
281.4989825341
 30
0.0
 40
20.0
100
AcDbArc
 50
235.7256764867
 51
55.7256764867
  0
ARC
  5
1BE
330
17D
100
AcDbEntity
  8
0
  6
Continuous
 62
     7
370
    25
100
AcDbCircle
 10
0.0
 20
193.4575448474
 30
0.0
 40
126.5424551525691
100
AcDbArc
 50
55.7256764867
 51
124.2743235133
  0
ARC
  5
1BF
330
17D
100
AcDbEntity
  8
0
  6
Continuous
 62
     7
370
    25
100
AcDbCircle
 10
0.0
 20
-118.0
 30
0.0
 40
15.00000000000004
100
AcDbArc
 50
290.6418214998
 51
249.3581785002
  0
VIEWPORT
  5
377
330
17D
100
AcDbEntity
  8
0
100
AcDbViewport
 10
0.0
 20
0.0
 30
0.0
 40
205.6
 41
156.0
 68
     1
 69
     1
 12
0.0
 22
0.0000000001
 13
0.0
 23
0.0
 14
10.0
 24
10.0
 15
10.0
 25
10.0
 16
0.0
 26
0.0
 36
1.0
 17
0.0
 27
0.0
 37
0.0
 42
50.0
 43
0.0
 44
0.0
 45
714.0
 50
0.0
 51
0.0
 72
   100
 90
   557152
  1

281
     0
 71
     1
 74
     0
110
0.0
120
0.0
130
0.0
111
1.0
121
0.0
131
0.0
112
0.0
122
1.0
132
0.0
 79
     0
146
0.0
  0
ENDBLK
  5
180
330
17D
100
AcDbEntity
  8
0
100
AcDbBlockEnd
  0
BLOCK
  5
1C2
330
1C0
100
AcDbEntity
  8
0
100
AcDbBlockBegin
  2
*Paper_Space5
 70
     0
 10
0.0
 20
0.0
 30
0.0
  3
*Paper_Space5
  1

  0
LINE
  5
1C4
330
1C0
100
AcDbEntity
  8
0
  6
Continuous
 62
     7
100
AcDbLine
 10
0.0
 20
-10.0
 30
0.0
 11
0.0
 21
-14.266241168
 31
0.0
  0
LINE
  5
1C5
330
1C0
100
AcDbEntity
  8
0
  6
Continuous
 62
     7
100
AcDbLine
 10
0.0
 20
-14.266241168
 30
0.0
 11
-3.3848101122
 21
-10.0
 31
0.0
  0
LINE
  5
1C6
330
1C0
100
AcDbEntity
  8
0
  6
Continuous
 62
     7
100
AcDbLine
 10
-3.3848101122
 20
-10.0
 30
0.0
 11
0.0
 21
-10.0
 31
0.0
  0
LINE
  5
1C7
330
1C0
100
AcDbEntity
  8
0
  6
Continuous
 62
     7
100
AcDbLine
 10
0.0
 20
10.0177751905
 30
0.0
 11
-2.4818627683
 21
10.0177751905
 31
0.0
  0
LINE
  5
1C8
330
1C0
100
AcDbEntity
  8
0
  6
Continuous
 62
     7
100
AcDbLine
 10
-2.4818627683
 20
10.0177751905
 30
0.0
 11
0.0
 21
14.1512830355
 31
0.0
  0
LINE
  5
1C9
330
1C0
100
AcDbEntity
  8
0
  6
Continuous
 62
     7
100
AcDbLine
 10
0.0
 20
14.1512830355
 30
0.0
 11
0.0
 21
10.0177751905
 31
0.0
  0
LINE
  5
1CA
330
1C0
100
AcDbEntity
  8
0
  6
Continuous
 62
     7
100
AcDbLine
 10
0.0
 20
10.0177751905
 30
0.0
 11
0.0442407849
 21
10.0177751905
 31
0.0
  0
LINE
  5
1CB
330
1C0
100
AcDbEntity
  8
0
  6
CENTERX2
 62
     7
100
AcDbLine
 10
7.6733003523
 20
0.0
 30
0.0
 11
-12.7066548223
 21
0.0
 31
0.0
  0
LINE
  5
1CC
330
1C0
100
AcDbEntity
  8
0
  6
CENTERX2
 62
     7
100
AcDbLine
 10
0.0
 20
-145.0
 30
0.0
 11
-25.2287527018
 21
-145.0
 31
0.0
  0
LINE
  5
1CD
330
1C0
100
AcDbEntity
  8
0
  6
Continuous
 62
     7
100
AcDbLine
 10
-8.0
 20
-151.5
 30
0.0
 11
-8.0
 21
-159.0
 31
0.0
  0
LINE
  5
1CE
330
1C0
100
AcDbEntity
  8
0
  6
Continuous
 62
     7
100
AcDbLine
 10
-8.0
 20
-159.0
 30
0.0
 11
-0.5
 21
-151.5
 31
0.0
  0
LINE
  5
1CF
330
1C0
100
AcDbEntity
  8
0
  6
Continuous
 62
     7
100
AcDbLine
 10
-0.5
 20
-151.5
 30
0.0
 11
-8.0
 21
-151.5
 31
0.0
  0
LINE
  5
1D4
330
1C0
100
AcDbEntity
  8
0
  6
Continuous
 62
     7
370
    25
100
AcDbLine
 10
0.0
 20
350.0
 30
0.0
 11
-8.0
 21
350.0
 31
0.0
  0
LINE
  5
1D5
330
1C0
100
AcDbEntity
  8
0
  6
Continuous
 62
     7
370
    25
100
AcDbLine
 10
-8.0
 20
-350.0
 30
0.0
 11
0.0
 21
-350.0
 31
0.0
  0
LINE
  5
1D6
330
1C0
100
AcDbEntity
  8
0
  6
Continuous
 62
     7
370
    25
100
AcDbLine
 10
0.0
 20
350.0
 30
0.0
 11
0.0
 21
-350.0
 31
0.0
  0
LINE
  5
1D7
330
1C0
100
AcDbEntity
  8
0
  6
Continuous
 62
     7
370
    25
100
AcDbLine
 10
-8.0
 20
350.0
 30
0.0
 11
-8.0
 21
-350.0
 31
0.0
  0
VIEWPORT
  5
379
330
1C0
100
AcDbEntity
  8
0
100
AcDbViewport
 10
0.0
 20
0.0
 30
0.0
 40
205.6
 41
156.0
 68
     1
 69
     1
 12
0.0
 22
0.0000000001
 13
0.0
 23
0.0
 14
10.0
 24
10.0
 15
10.0
 25
10.0
 16
0.0
 26
0.0
 36
1.0
 17
0.0
 27
0.0
 37
0.0
 42
50.0
 43
0.0
 44
0.0
 45
714.0
 50
0.0
 51
0.0
 72
   100
 90
   557152
  1

281
     0
 71
     1
 74
     0
110
0.0
120
0.0
130
0.0
111
1.0
121
0.0
131
0.0
112
0.0
122
1.0
132
0.0
 79
     0
146
0.0
  0
ENDBLK
  5
1C3
330
1C0
100
AcDbEntity
  8
0
100
AcDbBlockEnd
  0
BLOCK
  5
1DA
330
1D8
100
AcDbEntity
  8
0
100
AcDbBlockBegin
  2
*Paper_Space6
 70
     0
 10
0.0
 20
0.0
 30
0.0
  3
*Paper_Space6
  1

  0
LINE
  5
1E0
330
1D8
100
AcDbEntity
  8
0
  6
Continuous
 62
     7
370
    25
100
AcDbLine
 10
-350.0
 20
0.0
 30
0.0
 11
-350.0
 21
-8.0
 31
0.0
  0
LINE
  5
1E1
330
1D8
100
AcDbEntity
  8
0
  6
Continuous
 62
     7
370
    25
100
AcDbLine
 10
350.0
 20
-8.0
 30
0.0
 11
350.0
 21
0.0
 31
0.0
  0
LINE
  5
1E2
330
1D8
100
AcDbEntity
  8
0
  6
Continuous
 62
     7
370
    25
100
AcDbLine
 10
-350.0
 20
0.0
 30
0.0
 11
350.0
 21
0.0
 31
0.0
  0
LINE
  5
1E3
330
1D8
100
AcDbEntity
  8
0
  6
Continuous
 62
     7
370
    25
100
AcDbLine
 10
-350.0
 20
-8.0
 30
0.0
 11
350.0
 21
-8.0
 31
0.0
  0
VIEWPORT
  5
37B
330
1D8
100
AcDbEntity
  8
0
100
AcDbViewport
 10
0.0
 20
0.0
 30
0.0
 40
205.6
 41
156.0
 68
     1
 69
     1
 12
0.0
 22
0.0000000001
 13
0.0
 23
0.0
 14
10.0
 24
10.0
 15
10.0
 25
10.0
 16
0.0
 26
0.0
 36
1.0
 17
0.0
 27
0.0
 37
0.0
 42
50.0
 43
0.0
 44
0.0
 45
714.0
 50
0.0
 51
0.0
 72
   100
 90
   557152
  1

281
     0
 71
     1
 74
     0
110
0.0
120
0.0
130
0.0
111
1.0
121
0.0
131
0.0
112
0.0
122
1.0
132
0.0
 79
     0
146
0.0
  0
ENDBLK
  5
1DB
330
1D8
100
AcDbEntity
  8
0
100
AcDbBlockEnd
  0
BLOCK
  5
1E6
330
1E4
100
AcDbEntity
  8
0
100
AcDbBlockBegin
  2
*Paper_Space7
 70
     0
 10
0.0
 20
0.0
 30
0.0
  3
*Paper_Space7
  1

  0
LINE
  5
1E8
330
1E4
100
AcDbEntity
  8
0
  6
Continuous
 62
     7
100
AcDbLine
 10
0.0
 20
-8.1654081189
 30
0.0
 11
0.0
 21
-11.6489681459
 31
0.0
  0
LINE
  5
1E9
330
1E4
100
AcDbEntity
  8
0
  6
Continuous
 62
     7
100
AcDbLine
 10
0.0
 20
-11.6489681459
 30
0.0
 11
2.3934221834
 21
-6.7837149026
 31
0.0
  0
LINE
  5
1EA
330
1E4
100
AcDbEntity
  8
0
  6
Continuous
 62
     7
100
AcDbLine
 10
2.3934221834
 20
-6.7837149026
 30
0.0
 11
0.0
 21
-8.1654081189
 31
0.0
  0
LINE
  5
1EB
330
1E4
100
AcDbEntity
  8
0
  6
Continuous
 62
     7
100
AcDbLine
 10
0.0
 20
8.1799222873
 30
0.0
 11
1.7549419935
 21
9.1930287355
 31
0.0
  0
LINE
  5
1EC
330
1E4
100
AcDbEntity
  8
0
  6
Continuous
 62
     7
100
AcDbLine
 10
1.7549419935
 20
9.1930287355
 30
0.0
 11
0.0
 21
11.555100139
 31
0.0
  0
LINE
  5
1ED
330
1E4
100
AcDbEntity
  8
0
  6
Continuous
 62
     7
100
AcDbLine
 10
0.0
 20
11.555100139
 30
0.0
 11
0.0
 21
8.1799222873
 31
0.0
  0
LINE
  5
1EE
330
1E4
100
AcDbEntity
  8
0
  6
Continuous
 62
     7
100
AcDbLine
 10
0.0
 20
8.1799222873
 30
0.0
 11
-0.031282959
 21
8.1618630194
 31
0.0
  0
LINE
  5
1EF
330
1E4
100
AcDbEntity
  8
0
  6
CENTERX2
 62
     7
100
AcDbLine
 10
-5.4258427132
 20
-3.132272326
 30
0.0
 11
8.984961791
 21
5.1869080355
 31
0.0
  0
LINE
  5
1F0
330
1E4
100
AcDbEntity
  8
0
  6
CENTERX2
 62
     7
100
AcDbLine
 10
0.0
 20
-118.3984177234
 30
0.0
 11
17.8394221163
 21
-108.099938545
 31
0.0
  0
LINE
  5
1F1
330
1E4
100
AcDbEntity
  8
0
  6
Continuous
 62
     7
100
AcDbLine
 10
5.6568542495
 20
-120.4403005534
 30
0.0
 11
5.6568542495
 21
-126.5643566425
 31
0.0
  0
LINE
  5
1F2
330
1E4
100
AcDbEntity
  8
0
  6
Continuous
 62
     7
100
AcDbLine
 10
5.6568542495
 20
-126.5643566425
 30
0.0
 11
0.3535533906
 21
-123.5018309727
 31
0.0
  0
LINE
  5
1F3
330
1E4
100
AcDbEntity
  8
0
  6
Continuous
 62
     7
100
AcDbLine
 10
0.3535533906
 20
-123.5018309727
 30
0.0
 11
5.6568542495
 21
-120.4403005534
 31
0.0
  0
LWPOLYLINE
  5
1F6
330
1E4
100
AcDbEntity
  8
0
  6
Continuous
 62
     7
370
    25
100
AcDbPolyline
 90
      199
 70
   128
 43
0.0
 10
247.4873734153
 20
-142.871419569
 10
247.3627740121
 20
-133.7319864623
 10
246.9891012635
 20
-124.4578965812
 10
246.3667314263
 20
-115.0584881481
 10
245.4962911742
 20
-105.5432255705
 10
244.3786569666
 20
-95.9216899113
 10
243.0149541666
 20
-86.2035692413
 10
241.4065559073
 20
-76.3986488842
 10
239.5550817093
 20
-66.5168015637
 10
237.4623958503
 20
-56.5679774625
 10
235.1306054874
 20
-46.562194203
 10
232.562058536
 20
-36.5095267608
 10
229.7593413051
 20
-26.42009732
 10
226.7252758934
 20
-16.3040650807
 10
223.4629173475
 20
-6.1716160299
 10
219.975550586
 20
3.9670473151
 10
216.2666870916
 20
14.1017161797
 10
212.3400613754
 20
24.2221858114
 10
208.1996272167
 20
34.3182657553
 10
203.8495536818
 20
44.3797901146
 10
199.2942209258
 20
54.3966277872
 10
194.5382157829
 20
64.3586926666
 10
189.5863271469
 20
74.2559537979
 10
184.44354115
 20
84.0784454782
 10
179.1150361419
 20
93.8162772909
 10
173.6061774752
 20
103.4596440648
 10
167.9225121038
 20
112.998835747
 10
162.0697629969
 20
122.4242471802
 10
156.0538233768
 20
131.7263877739
 10
149.8807507846
 20
140.8958910611
 10
143.5567609812
 20
149.9235241292
 10
137.0882216883
 20
158.800196917
 10
130.4816461766
 20
167.5169713674
 10
123.7436867076
 20
176.0650704275
 10
116.8811278355
 20
184.435886886
 10
109.9008795752
 20
192.6209920404
 10
102.8099704451
 20
200.6121441836
 10
95.6155403896
 20
208.4012969027
 10
88.3248335899
 20
215.9806071813
 10
80.9451911697
 20
223.3424432964
 10
73.4840438035
 20
230.479392503
 10
65.9489042341
 20
237.3842684982
 10
58.3473597084
 20
244.0501186573
 10
50.6870643374
 20
250.4702310341
 10
42.9757313891
 20
256.6381411197
 10
35.2211255223
 20
262.5476383515
 10
27.4310549676
 20
268.1927723667
 10
19.6133636658
 20
273.5678589939
 10
11.7759233693
 20
278.6674859764
 10
3.9266257162
 20
283.4865184221
 10
-3.9266257162
 20
288.0201039739
 10
-11.7759233693
 20
292.2636776955
 10
-19.6133636658
 20
296.2129666677
 10
-27.4310549676
 20
299.8639942914
 10
-35.2211255223
 20
303.2130842912
 10
-42.9757313891
 20
306.2568644174
 10
-50.6870643374
 20
308.9922698415
 10
-58.3473597084
 20
311.4165462419
 10
-65.9489042341
 20
313.5272525779
 10
-73.4840438035
 20
315.3222635472
 10
-80.9451911697
 20
316.7997717258
 10
-88.3248335899
 20
317.9582893882
 10
-95.6155403896
 20
318.7966500054
 10
-102.8099704451
 20
319.3140094193
 10
-109.9008795752
 20
319.5098466927
 10
-116.8811278355
 20
319.3839646343
 10
-123.7436867076
 20
318.9364899964
 10
-130.4816461766
 20
318.1678733483
 10
-137.0882216883
 20
317.0788886216
 10
-143.5567609812
 20
315.6706323317
 10
-149.8807507846
 20
313.9445224732
 10
-156.0538233768
 20
311.9022970926
 10
-162.0697629969
 20
309.5460125377
 10
-167.9225121038
 20
306.8780413872
 10
-173.6061774752
 20
303.901070062
 10
-179.1150361419
 20
300.6180961198
 10
-184.44354115
 20
297.0324252371
 10
-189.5863271469
 20
293.1476678806
 10
-194.5382157829
 20
288.9677356716
 10
-199.2942209258
 20
284.4968374475
 10
-203.8495536818
 20
279.7394750238
 10
-208.1996272167
 20
274.7004386613
 10
-212.3400613754
 20
269.3848022425
 10
-216.2666870916
 20
263.7979181625
 10
-219.975550586
 20
257.9454119402
 10
-223.4629173475
 20
251.8331765531
 10
-226.7252758934
 20
245.4673665042
 10
-229.7593413051
 20
238.8543916246
 10
-232.562058536
 20
232.0009106195
 10
-235.1306054874
 20
224.9138243633
 10
-237.4623958503
 20
217.600268951
 10
-239.5550817093
 20
210.0676085131
 10
-241.4065559073
 20
202.3234278002
 10
-243.0149541666
 20
194.3755245456
 10
-244.3786569666
 20
186.2319016143
 10
-245.4962911741
 20
177.9007589443
 10
-246.3667314263
 20
169.3904852901
 10
-246.9891012635
 20
160.7096497757
 10
-247.3627740121
 20
151.8669932669
 10
-247.4873734153
 20
142.871419569
 10
-247.3627740121
 20
133.7319864623
 10
-246.9891012635
 20
124.4578965812
 10
-246.3667314263
 20
115.0584881481
 10
-245.4962911741
 20
105.5432255705
 10
-244.3786569666
 20
95.9216899113
 10
-243.0149541666
 20
86.2035692413
 10
-241.4065559073
 20
76.3986488842
 10
-239.5550817093
 20
66.5168015637
 10
-237.4623958503
 20
56.5679774625
 10
-235.1306054874
 20
46.562194203
 10
-232.562058536
 20
36.5095267608
 10
-229.7593413051
 20
26.42009732
 10
-226.7252758934
 20
16.3040650807
 10
-223.4629173475
 20
6.1716160299
 10
-219.975550586
 20
-3.9670473151
 10
-216.2666870916
 20
-14.1017161797
 10
-212.3400613754
 20
-24.2221858114
 10
-208.1996272167
 20
-34.3182657553
 10
-203.8495536818
 20
-44.3797901146
 10
-199.2942209258
 20
-54.3966277872
 10
-194.5382157829
 20
-64.3586926666
 10
-189.5863271469
 20
-74.2559537979
 10
-184.44354115
 20
-84.0784454782
 10
-179.1150361419
 20
-93.8162772909
 10
-173.6061774752
 20
-103.4596440648
 10
-167.9225121038
 20
-112.998835747
 10
-162.0697629969
 20
-122.4242471802
 10
-156.0538233768
 20
-131.7263877739
 10
-149.8807507846
 20
-140.8958910611
 10
-143.5567609812
 20
-149.9235241292
 10
-137.0882216883
 20
-158.800196917
 10
-130.4816461766
 20
-167.5169713674
 10
-123.7436867076
 20
-176.0650704275
 10
-116.8811278355
 20
-184.435886886
 10
-109.9008795752
 20
-192.6209920404
 10
-102.8099704451
 20
-200.6121441836
 10
-95.6155403896
 20
-208.4012969027
 10
-88.3248335899
 20
-215.9806071813
 10
-80.9451911697
 20
-223.3424432964
 10
-73.4840438035
 20
-230.479392503
 10
-65.9489042341
 20
-237.3842684982
 10
-58.3473597084
 20
-244.0501186573
 10
-50.6870643374
 20
-250.4702310341
 10
-42.9757313891
 20
-256.6381411197
 10
-35.2211255223
 20
-262.5476383515
 10
-27.4310549676
 20
-268.1927723667
 10
-19.6133636658
 20
-273.5678589939
 10
-11.7759233693
 20
-278.6674859764
 10
-3.9266257162
 20
-283.4865184221
 10
3.9266257162
 20
-288.0201039739
 10
11.7759233693
 20
-292.2636776955
 10
19.6133636658
 20
-296.2129666677
 10
27.4310549676
 20
-299.8639942914
 10
35.2211255223
 20
-303.2130842912
 10
42.9757313891
 20
-306.2568644174
 10
50.6870643374
 20
-308.9922698415
 10
58.3473597084
 20
-311.4165462419
 10
65.9489042341
 20
-313.5272525779
 10
73.4840438035
 20
-315.3222635472
 10
80.9451911697
 20
-316.7997717258
 10
88.3248335899
 20
-317.9582893882
 10
95.6155403896
 20
-318.7966500054
 10
102.8099704451
 20
-319.3140094193
 10
109.9008795752
 20
-319.5098466927
 10
116.8811278355
 20
-319.3839646343
 10
123.7436867076
 20
-318.9364899964
 10
130.4816461766
 20
-318.1678733483
 10
137.0882216883
 20
-317.0788886216
 10
143.5567609812
 20
-315.6706323317
 10
149.8807507846
 20
-313.9445224732
 10
156.0538233768
 20
-311.9022970926
 10
162.0697629969
 20
-309.5460125377
 10
167.9225121038
 20
-306.8780413872
 10
173.6061774752
 20
-303.901070062
 10
179.1150361419
 20
-300.6180961198
 10
184.44354115
 20
-297.0324252371
 10
189.5863271469
 20
-293.1476678806
 10
194.5382157829
 20
-288.9677356715
 10
199.2942209258
 20
-284.4968374475
 10
203.8495536818
 20
-279.7394750238
 10
208.1996272167
 20
-274.7004386613
 10
212.3400613754
 20
-269.3848022425
 10
216.2666870916
 20
-263.7979181625
 10
219.975550586
 20
-257.9454119402
 10
223.4629173475
 20
-251.8331765531
 10
226.7252758934
 20
-245.4673665042
 10
229.7593413051
 20
-238.8543916246
 10
232.562058536
 20
-232.0009106195
 10
235.1306054874
 20
-224.9138243633
 10
237.4623958503
 20
-217.600268951
 10
239.5550817093
 20
-210.0676085131
 10
241.4065559073
 20
-202.3234278002
 10
243.0149541666
 20
-194.3755245456
 10
244.3786569666
 20
-186.2319016143
 10
245.4962911741
 20
-177.9007589443
 10
246.3667314263
 20
-169.3904852901
 10
246.9891012635
 20
-160.7096497757
 10
247.3627740121
 20
-151.8669932669
 10
247.4873734153
 20
-142.871419569
  0
LWPOLYLINE
  5
1F7
330
1E4
100
AcDbEntity
  8
0
  6
Continuous
 62
     7
370
    25
100
AcDbPolyline
 90
       76
 70
   128
 43
0.0
 10
253.1442276648
 20
-139.6057871217
 10
253.0196282616
 20
-130.466354015
 10
252.645955513
 20
-121.1922641339
 10
252.0235856758
 20
-111.7928557008
 10
251.1531454236
 20
-102.2775931232
 10
250.0355112161
 20
-92.656057464
 10
248.6718084161
 20
-82.937936794
 10
247.0634101568
 20
-73.1330164369
 10
245.2119359588
 20
-63.2511691164
 10
243.1192500998
 20
-53.3023450152
 10
240.7874597369
 20
-43.2965617557
 10
238.2189127855
 20
-33.2438943135
 10
235.4161955546
 20
-23.1544648727
 10
232.3821301429
 20
-13.0384326334
 10
229.119771597
 20
-2.9059835826
 10
225.6324048355
 20
7.2326797623
 10
221.9235413411
 20
17.367348627
 10
217.9969156249
 20
27.4878182587
 10
213.8564814662
 20
37.5838982026
 10
209.5064079312
 20
47.6454225619
 10
204.9510751753
 20
57.6622602345
 10
200.1950700323
 20
67.6243251139
 10
195.2431813964
 20
77.5215862452
 10
190.1003953995
 20
87.3440779255
 10
184.7718903914
 20
97.0819097382
 10
179.2630317247
 20
106.7252765121
 10
173.5793663533
 20
116.2644681943
 10
167.7266172464
 20
125.6898796275
 10
161.7106776262
 20
134.9920202212
 10
155.537605034
 20
144.1615235084
 10
149.2136152307
 20
153.1891565765
 10
142.7450759377
 20
162.0658293643
 10
136.1385004261
 20
170.7826038147
 10
129.4005409571
 20
179.3307028747
 10
122.537982085
 20
187.7015193333
 10
115.5577338247
 20
195.8866244877
 10
108.4668246946
 20
203.8777766309
 10
101.2723946391
 20
211.66692935
 10
93.9816878394
 20
219.2462396286
 10
86.6020454192
 20
226.6080757437
 10
79.140898053
 20
233.7450249503
 10
71.6057584836
 20
240.6499009455
 10
64.0042139579
 20
247.3157511046
 10
56.3439185869
 20
253.7358634814
 10
48.6325856386
 20
259.903773567
 10
40.8779797718
 20
265.8132707988
 10
33.0879092171
 20
271.458404814
 10
25.2702179153
 20
276.8334914412
 10
17.4327776188
 20
281.9331184237
 10
9.5834799657
 20
286.7521508694
 10
1.7302285333
 20
291.2857364212
 10
-6.1190691198
 20
295.5293101428
 10
-13.9565094163
 20
299.478599115
 10
-21.7742007181
 20
303.1296267387
 10
-29.5642712728
 20
306.4787167385
 10
-37.3188771396
 20
309.5224968647
 10
-45.0302100879
 20
312.2579022887
 10
-52.6905054589
 20
314.6821786892
 10
-60.2920499846
 20
316.7928850252
 10
-67.827189554
 20
318.5878959945
 10
-75.2883369202
 20
320.0654041731
 10
-82.6679793404
 20
321.2239218355
 10
-89.9586861401
 20
322.0622824527
 10
-97.1531161956
 20
322.5796418665
 10
-104.2440253257
 20
322.77547914
 10
-111.224273586
 20
322.6495970815
 10
-118.0868324582
 20
322.2021224437
 10
-124.8247919271
 20
321.4335057955
 10
-131.4313674388
 20
320.3445210689
 10
-137.8999067317
 20
318.9362647789
 10
-144.2238965351
 20
317.2101549205
 10
-150.3969691273
 20
315.1679295399
 10
-156.4129087474
 20
312.811644985
 10
-162.2656578543
 20
310.1436738345
 10
-167.9493232257
 20
307.1667025093
 10
-169.3289239618
 20
306.3827342805
  0
LWPOLYLINE
  5
1F8
330
1E4
100
AcDbEntity
  8
0
  6
Continuous
 62
     7
370
    25
100
AcDbPolyline
 90
       26
 70
   128
 43
0.0
 10
180.6426324608
 20
-299.8514693859
 10
184.7718903914
 20
-297.3524636725
 10
190.1003953995
 20
-293.7667927898
 10
195.2431813964
 20
-289.8820354333
 10
200.1950700323
 20
-285.7021032243
 10
204.9510751753
 20
-281.2312050002
 10
209.5064079312
 20
-276.4738425765
 10
213.8564814662
 20
-271.434806214
 10
217.9969156249
 20
-266.1191697952
 10
221.9235413411
 20
-260.5322857152
 10
225.6324048355
 20
-254.6797794929
 10
229.119771597
 20
-248.5675441058
 10
232.3821301429
 20
-242.2017340569
 10
235.4161955546
 20
-235.5887591773
 10
238.2189127855
 20
-228.7352781722
 10
240.7874597369
 20
-221.648191916
 10
243.1192500998
 20
-214.3346365037
 10
245.2119359588
 20
-206.8019760659
 10
247.0634101568
 20
-199.0577953529
 10
248.6718084161
 20
-191.1098920983
 10
250.0355112161
 20
-182.966269167
 10
251.1531454236
 20
-174.635126497
 10
252.0235856758
 20
-166.1248528428
 10
252.645955513
 20
-157.4440173284
 10
253.0196282616
 20
-148.6013608196
 10
253.1442276648
 20
-139.6057871217
  0
LWPOLYLINE
  5
1F9
330
1E4
100
AcDbEntity
  8
0
  6
Continuous
 62
     7
370
    25
100
AcDbPolyline
 90
       23
 70
   128
 43
0.0
 10
-50.3906323643
 20
-214.260497116
 10
-46.2970722612
 20
-219.660309298
 10
-42.0666278571
 20
-224.8777128606
 10
-37.7118071012
 20
-229.8972817605
 10
-33.2454856802
 20
-234.7041748824
 10
-28.6808689493
 20
-239.2841799195
 10
-24.0314528886
 20
-243.6237553936
 10
-19.3109842004
 20
-247.7100706932
 10
-14.5334196648
 20
-251.5310440085
 10
-9.7128848745
 20
-255.0753780537
 10
-4.86363247
 20
-258.3325934688
 10
0.0
 20
-261.2930598034
 10
4.86363247
 20
-263.9480239908
 10
9.7128848745
 20
-266.2896362276
 10
14.5334196648
 20
-268.3109731827
 10
19.3109842004
 20
-270.0060584675
 10
24.0314528886
 20
-271.3698803059
 10
28.6808689493
 20
-272.3984063522
 10
33.2454856802
 20
-273.0885956134
 10
37.7118071012
 20
-273.4384074406
 10
42.0666278571
 20
-273.4468075622
 10
46.2970722612
 20
-273.1137711419
 10
50.3906323643
 20
-272.4402828523
  0
LWPOLYLINE
  5
1FA
330
1E4
100
AcDbEntity
  8
0
  6
Continuous
 62
     7
370
    25
100
AcDbPolyline
 90
       24
 70
   128
 43
0.0
 10
50.3906323643
 20
-272.4402828523
 10
51.9077462153
 20
-271.9381044706
 10
53.2482406537
 20
-271.1082492251
 10
54.3871448044
 20
-269.9661757487
 10
55.303243038
 20
-268.5331587095
 10
55.9794701777
 20
-266.8358925034
 10
56.4032293914
 20
-264.9059939887
 10
56.5666268467
 20
-262.779413523
 10
56.4666187582
 20
-260.4957652769
 10
56.1050680874
 20
-258.0975892963
 10
55.4887098391
 20
-255.6295590623
 10
54.6290256013
 20
-253.1376493083
 10
53.5420296648
 20
-250.6682795983
 10
52.2479707073
 20
-248.2674496176
 10
50.7709545986
 20
-245.9798822864
 10
49.1384953542
 20
-243.8481906557
 10
47.3810026012
 20
-241.9120841073
 10
45.5312151042
 20
-240.2076286429
 10
43.6235909043
 20
-238.7665750429
 10
41.693665431
 20
-237.6157674093
 10
39.7773895443
 20
-236.7766431109
 10
37.9104598384
 20
-236.2648334457
 10
36.1276536811
 20
-236.0898724593
 10
34.4621813781
 20
-236.2550193439
  0
LWPOLYLINE
  5
1FB
330
1E4
100
AcDbEntity
  8
0
  6
Continuous
 62
     7
370
    25
100
AcDbPolyline
 90
       19
 70
   128
 43
0.0
 10
34.4621813781
 20
-236.2550193439
 10
31.0274524847
 20
-236.7863885991
 10
27.4557005108
 20
-236.9696720712
 10
23.7626989865
 20
-236.8040603459
 10
19.964756903
 20
-236.2902847959
 10
16.0786466886
 20
-235.4306143508
 10
12.1215301387
 20
-234.2288454775
 10
8.1108826262
 20
-232.6902854138
 10
4.0644159266
 20
-230.8217287311
 10
0.0
 20
-228.631427328
 10
-4.0644159266
 20
-226.1290539886
 10
-8.1108826262
 20
-223.3256596652
 10
-12.1215301387
 20
-220.233624676
 10
-16.0786466886
 20
-216.8666040302
 10
-19.964756903
 20
-213.2394671261
 10
-23.7626989865
 20
-209.3682320841
 10
-27.4557005108
 20
-205.269995008
 10
-31.0274524847
 20
-200.9628544856
 10
-34.4621813781
 20
-196.4658316615
  0
LWPOLYLINE
  5
1FC
330
1E4
100
AcDbEntity
  8
0
  6
Continuous
 62
     7
370
    25
100
AcDbPolyline
 90
       24
 70
   128
 43
0.0
 10
-34.4621813781
 20
-196.4658316615
 10
-36.1276536811
 20
-194.3777713861
 10
-37.9104598384
 20
-192.4943481973
 10
-39.7773895443
 20
-190.8506467053
 10
-41.693665431
 20
-189.4772859591
 10
-43.6235909043
 20
-188.3998490708
 10
-45.5312151042
 20
-187.638406651
 10
-47.3810026012
 20
-187.2071429313
 10
-49.1384953542
 20
-187.1140915389
 10
-50.7709545986
 20
-187.3609858451
 10
-52.2479707073
 20
-187.9432266762
 10
-53.5420296648
 20
-188.849967987
 10
-54.6290256013
 20
-190.0643189026
 10
-55.4887098391
 20
-191.5636583631
 10
-56.1050680874
 20
-193.3200565112
 10
-56.4666187582
 20
-195.3007949727
 10
-56.5666268467
 20
-197.4689763376
 10
-56.4032293914
 20
-199.7842114895
 10
-55.9794701777
 20
-202.2033719782
 10
-55.303243038
 20
-204.6813934209
 10
-54.3871448044
 20
-207.1721149667
 10
-53.2482406537
 20
-209.629139186
 10
-51.9077462153
 20
-212.0066963664
 10
-50.3906323643
 20
-214.260497116
  0
LWPOLYLINE
  5
1FD
330
1E4
100
AcDbEntity
  8
0
  6
Continuous
 62
     7
370
    25
100
AcDbPolyline
 90
       19
 70
   128
 43
0.0
 10
-34.4621813781
 20
236.2550193439
 10
-31.0274524847
 20
236.7863885991
 10
-27.4557005108
 20
236.9696720712
 10
-23.7626989865
 20
236.8040603459
 10
-19.964756903
 20
236.2902847959
 10
-16.0786466886
 20
235.4306143508
 10
-12.1215301387
 20
234.2288454775
 10
-8.1108826262
 20
232.6902854138
 10
-4.0644159266
 20
230.8217287311
 10
0.0
 20
228.631427328
 10
4.0644159266
 20
226.1290539886
 10
8.1108826262
 20
223.3256596652
 10
12.1215301387
 20
220.233624676
 10
16.0786466886
 20
216.8666040302
 10
19.964756903
 20
213.2394671261
 10
23.7626989865
 20
209.3682320841
 10
27.4557005108
 20
205.269995008
 10
31.0274524847
 20
200.9628544856
 10
34.4621813781
 20
196.4658316615
  0
LWPOLYLINE
  5
1FE
330
1E4
100
AcDbEntity
  8
0
  6
Continuous
 62
     7
370
    25
100
AcDbPolyline
 90
       24
 70
   128
 43
0.0
 10
34.4621813781
 20
196.4658316615
 10
36.1276536811
 20
194.3777713861
 10
37.9104598384
 20
192.4943481973
 10
39.7773895443
 20
190.8506467053
 10
41.693665431
 20
189.4772859591
 10
43.6235909043
 20
188.3998490708
 10
45.5312151042
 20
187.638406651
 10
47.3810026012
 20
187.2071429313
 10
49.1384953542
 20
187.1140915389
 10
50.7709545986
 20
187.3609858451
 10
52.2479707073
 20
187.9432266762
 10
53.5420296648
 20
188.849967987
 10
54.6290256013
 20
190.0643189026
 10
55.4887098391
 20
191.5636583631
 10
56.1050680874
 20
193.3200565112
 10
56.4666187582
 20
195.3007949727
 10
56.5666268467
 20
197.4689763376
 10
56.4032293914
 20
199.7842114895
 10
55.9794701777
 20
202.2033719782
 10
55.303243038
 20
204.6813934209
 10
54.3871448044
 20
207.1721149667
 10
53.2482406537
 20
209.629139186
 10
51.9077462153
 20
212.0066963664
 10
50.3906323643
 20
214.260497116
  0
LWPOLYLINE
  5
1FF
330
1E4
100
AcDbEntity
  8
0
  6
Continuous
 62
     7
370
    25
100
AcDbPolyline
 90
       23
 70
   128
 43
0.0
 10
50.3906323643
 20
214.260497116
 10
46.2970722612
 20
219.6603092981
 10
42.0666278571
 20
224.8777128606
 10
37.7118071012
 20
229.8972817605
 10
33.2454856802
 20
234.7041748824
 10
28.6808689493
 20
239.2841799195
 10
24.0314528886
 20
243.6237553936
 10
19.3109842004
 20
247.7100706932
 10
14.5334196648
 20
251.5310440085
 10
9.7128848745
 20
255.0753780537
 10
4.86363247
 20
258.3325934688
 10
0.0
 20
261.2930598034
 10
-4.86363247
 20
263.9480239908
 10
-9.7128848745
 20
266.2896362276
 10
-14.5334196648
 20
268.3109731827
 10
-19.3109842004
 20
270.0060584675
 10
-24.0314528886
 20
271.3698803059
 10
-28.6808689493
 20
272.3984063522
 10
-33.2454856802
 20
273.0885956134
 10
-37.7118071012
 20
273.4384074406
 10
-42.0666278571
 20
273.4468075622
 10
-46.2970722612
 20
273.1137711419
 10
-50.3906323643
 20
272.4402828523
  0
LWPOLYLINE
  5
200
330
1E4
100
AcDbEntity
  8
0
  6
Continuous
 62
     7
370
    25
100
AcDbPolyline
 90
       24
 70
   128
 43
0.0
 10
-50.3906323643
 20
272.4402828523
 10
-51.9077462153
 20
271.9381044706
 10
-53.2482406537
 20
271.1082492251
 10
-54.3871448044
 20
269.9661757487
 10
-55.303243038
 20
268.5331587095
 10
-55.9794701777
 20
266.8358925034
 10
-56.4032293914
 20
264.9059939887
 10
-56.5666268467
 20
262.7794135231
 10
-56.4666187582
 20
260.4957652769
 10
-56.1050680874
 20
258.0975892963
 10
-55.4887098391
 20
255.6295590623
 10
-54.6290256013
 20
253.1376493083
 10
-53.5420296648
 20
250.6682795983
 10
-52.2479707073
 20
248.2674496176
 10
-50.7709545986
 20
245.9798822864
 10
-49.1384953542
 20
243.8481906557
 10
-47.3810026012
 20
241.9120841073
 10
-45.5312151042
 20
240.2076286429
 10
-43.6235909043
 20
238.7665750429
 10
-41.693665431
 20
237.6157674093
 10
-39.7773895443
 20
236.7766431109
 10
-37.9104598384
 20
236.2648334457
 10
-36.1276536811
 20
236.0898724593
 10
-34.4621813781
 20
236.2550193439
  0
LWPOLYLINE
  5
202
330
1E4
100
AcDbEntity
  8
0
  6
Continuous
 62
     7
370
    25
100
AcDbPolyline
 90
       28
 70
   128
 43
0.0
 10
-32.5108673666
 20
-49.9334235272
 10
-31.0345922828
 20
-48.8707535925
 10
-29.7608122788
 20
-47.5062244812
 10
-28.706753044
 20
-45.8582891085
 10
-27.8866689214
 20
-43.9492329735
 10
-27.3116501419
 20
-41.8048727854
 10
-26.9894728479
 20
-39.4542073372
 10
-26.9244939348
 20
-36.9290253464
 10
-27.1175921308
 20
-34.2634755676
 10
-27.5661561142
 20
-31.4936049889
 10
-28.2641198265
 20
-28.6568713582
 10
-29.2020445059
 20
-25.7916366314
 10
-30.3672463301
 20
-22.936648193
 10
-31.7439679432
 20
-20.1305148639
 10
-33.3135915473
 20
-17.4111847835
 10
-35.0548906758
 20
-14.8154322262
 10
-36.944317245
 20
-12.3783602923
 10
-38.956320002
 20
-10.132926199
 10
-41.063690061
 20
-8.1094955905
 10
-43.2379288571
 20
-6.3354318944
 10
-45.4496335404
 20
-4.834726279
 10
-47.6688945994
 20
-3.6276732132
 10
-49.8657003352
 20
-2.7305960191
 10
-52.0103427188
 20
-2.1556261268
 10
-54.0738191412
 20
-1.9105390177
 10
-56.0282246236
 20
-1.9986490746
 10
-57.8471291845
 20
-2.4187647601
 10
-59.5059352601
 20
-3.1652047302
  0
LWPOLYLINE
  5
204
330
1E4
100
AcDbEntity
  8
0
  6
Continuous
 62
     7
370
    25
100
AcDbPolyline
 90
       28
 70
   128
 43
0.0
 10
-122.5174414067
 20
-39.5262219065
 10
-123.9937164905
 20
-40.5888918412
 10
-125.2674964945
 20
-41.9534209526
 10
-126.3215557293
 20
-43.6013563252
 10
-127.1416398519
 20
-45.5104124602
 10
-127.7166586314
 20
-47.6547726483
 10
-128.0388359254
 20
-50.0054380966
 10
-128.1038148385
 20
-52.5306200873
 10
-127.9107166425
 20
-55.1961698661
 10
-127.4621526591
 20
-57.9660404448
 10
-126.7641889468
 20
-60.8027740755
 10
-125.8262642674
 20
-63.6680088023
 10
-124.6610624432
 20
-66.5229972407
 10
-123.2843408301
 20
-69.3291305698
 10
-121.714717226
 20
-72.0484606502
 10
-119.9734180975
 20
-74.6442132076
 10
-118.0839915283
 20
-77.0812851414
 10
-116.0719887713
 20
-79.3267192347
 10
-113.9646187123
 20
-81.3501498433
 10
-111.7903799162
 20
-83.1242135393
 10
-109.5786752329
 20
-84.6249191548
 10
-107.3594141739
 20
-85.8319722205
 10
-105.1626084381
 20
-86.7290494147
 10
-103.0179660545
 20
-87.304019307
 10
-100.9544896321
 20
-87.549106416
 10
-99.0000841497
 20
-87.4609963591
 10
-97.1811795888
 20
-87.0408806736
 10
-95.5223735132
 20
-86.2944407035
  0
LWPOLYLINE
  5
206
330
1E4
100
AcDbEntity
  8
0
  6
Continuous
 62
     7
370
    25
100
AcDbPolyline
 90
       28
 70
   128
 43
0.0
 10
59.4940627548
 20
-71.8875410422
 10
57.8357958634
 20
-69.2254959644
 10
56.017356503
 20
-66.7048191326
 10
54.0633359463
 20
-64.3595983767
 10
52.0001589695
 20
-62.2215487842
 10
49.8557265016
 20
-60.3195838082
 10
47.6590383131
 20
-58.6794242621
 10
45.4398008434
 20
-57.3232504901
 10
43.2280254722
 20
-56.269402416
 10
41.053622667
 20
-55.5321315272
 10
38.9459974958
 20
-55.1214081475
 10
36.9336519733
 20
-55.0427866062
 10
35.0437996206
 20
-55.2973301248
 10
33.3019974487
 20
-55.8815964387
 10
31.731800344
 20
-56.7876843485
 10
30.3544425287
 20
-58.0033405694
 10
29.1885504044
 20
-59.5121254366
 10
28.2498906619
 20
-61.293635223
 10
27.5511570642
 20
-63.3237780649
 10
27.1017987844
 20
-65.5750997631
 10
26.9078926223
 20
-68.0171550537
 10
26.9720608262
 20
-70.6169193281
 10
27.2934356312
 20
-73.3392352345
 10
27.8676709944
 20
-76.1472881203
 10
28.6870013675
 20
-79.0031038873
 10
29.7403467129
 20
-81.8680625265
 10
31.0134623417
 20
-84.703420387
 10
32.4891315491
 20
-87.4708341178
  0
LWPOLYLINE
  5
208
330
1E4
100
AcDbEntity
  8
0
  6
Continuous
 62
     7
370
    25
100
AcDbPolyline
 90
       28
 70
   128
 43
0.0
 10
95.4776233007
 20
-196.5966779773
 10
97.1358901921
 20
-199.2587230551
 10
98.9543295525
 20
-201.779399887
 10
100.9083501092
 20
-204.1246206429
 10
102.9715270861
 20
-206.2626702353
 10
105.1159595539
 20
-208.1646352114
 10
107.3126477424
 20
-209.8047947575
 10
109.5318852121
 20
-211.1609685295
 10
111.7436605834
 20
-212.2148166036
 10
113.9180633885
 20
-212.9520874924
 10
116.0256885597
 20
-213.362810872
 10
118.0380340822
 20
-213.4414324133
 10
119.9278864349
 20
-213.1868888948
 10
121.6696886068
 20
-212.6026225808
 10
123.2398857115
 20
-211.6965346711
 10
124.6172435268
 20
-210.4808784502
 10
125.7831356512
 20
-208.972093583
 10
126.7217953936
 20
-207.1905837966
 10
127.4205289913
 20
-205.1604409546
 10
127.8698872712
 20
-202.9091192565
 10
128.0637934332
 20
-200.4670639659
 10
127.9996252293
 20
-197.8672996915
 10
127.6782504243
 20
-195.1449837851
 10
127.1040150611
 20
-192.3369308993
 10
126.284684688
 20
-189.4811151323
 10
125.2313393426
 20
-186.6161564931
 10
123.9582237138
 20
-183.7807986326
 10
122.4825545064
 20
-181.0133849018
  0
LWPOLYLINE
  5
20A
330
1E4
100
AcDbEntity
  8
0
  6
Continuous
 62
     7
370
    25
100
AcDbPolyline
 90
       28
 70
   128
 43
0.0
 10
32.5108673666
 20
49.9334235272
 10
31.0345922828
 20
48.8707535925
 10
29.7608122788
 20
47.5062244812
 10
28.706753044
 20
45.8582891085
 10
27.8866689214
 20
43.9492329735
 10
27.3116501419
 20
41.8048727854
 10
26.9894728479
 20
39.4542073372
 10
26.9244939348
 20
36.9290253464
 10
27.1175921308
 20
34.2634755676
 10
27.5661561142
 20
31.4936049889
 10
28.2641198265
 20
28.6568713582
 10
29.2020445059
 20
25.7916366314
 10
30.3672463301
 20
22.936648193
 10
31.7439679432
 20
20.1305148639
 10
33.3135915473
 20
17.4111847835
 10
35.0548906758
 20
14.8154322262
 10
36.944317245
 20
12.3783602923
 10
38.956320002
 20
10.132926199
 10
41.063690061
 20
8.1094955905
 10
43.2379288571
 20
6.3354318944
 10
45.4496335404
 20
4.834726279
 10
47.6688945994
 20
3.6276732132
 10
49.8657003352
 20
2.7305960191
 10
52.0103427188
 20
2.1556261268
 10
54.0738191412
 20
1.9105390177
 10
56.0282246236
 20
1.9986490746
 10
57.8471291845
 20
2.4187647601
 10
59.5059352601
 20
3.1652047302
  0
LWPOLYLINE
  5
20C
330
1E4
100
AcDbEntity
  8
0
  6
Continuous
 62
     7
370
    25
100
AcDbPolyline
 90
       28
 70
   128
 43
0.0
 10
122.5174414067
 20
39.5262219065
 10
123.9937164905
 20
40.5888918412
 10
125.2674964945
 20
41.9534209526
 10
126.3215557293
 20
43.6013563252
 10
127.1416398519
 20
45.5104124602
 10
127.7166586314
 20
47.6547726483
 10
128.0388359254
 20
50.0054380966
 10
128.1038148385
 20
52.5306200873
 10
127.9107166425
 20
55.1961698661
 10
127.4621526591
 20
57.9660404448
 10
126.7641889468
 20
60.8027740755
 10
125.8262642674
 20
63.6680088023
 10
124.6610624432
 20
66.5229972407
 10
123.2843408301
 20
69.3291305698
 10
121.714717226
 20
72.0484606502
 10
119.9734180975
 20
74.6442132076
 10
118.0839915283
 20
77.0812851414
 10
116.0719887713
 20
79.3267192347
 10
113.9646187123
 20
81.3501498433
 10
111.7903799162
 20
83.1242135393
 10
109.5786752329
 20
84.6249191548
 10
107.3594141739
 20
85.8319722205
 10
105.1626084381
 20
86.7290494147
 10
103.0179660545
 20
87.304019307
 10
100.9544896321
 20
87.549106416
 10
99.0000841497
 20
87.4609963591
 10
97.1811795888
 20
87.0408806736
 10
95.5223735132
 20
86.2944407035
  0
LWPOLYLINE
  5
20E
330
1E4
100
AcDbEntity
  8
0
  6
Continuous
 62
     7
370
    25
100
AcDbPolyline
 90
       28
 70
   128
 43
0.0
 10
-59.4940627548
 20
71.8875410422
 10
-57.8357958634
 20
69.2254959644
 10
-56.017356503
 20
66.7048191326
 10
-54.0633359463
 20
64.3595983767
 10
-52.0001589695
 20
62.2215487842
 10
-49.8557265016
 20
60.3195838082
 10
-47.6590383131
 20
58.6794242621
 10
-45.4398008434
 20
57.3232504901
 10
-43.2280254722
 20
56.269402416
 10
-41.053622667
 20
55.5321315272
 10
-38.9459974958
 20
55.1214081475
 10
-36.9336519733
 20
55.0427866062
 10
-35.0437996206
 20
55.2973301248
 10
-33.3019974487
 20
55.8815964387
 10
-31.731800344
 20
56.7876843485
 10
-30.3544425287
 20
58.0033405694
 10
-29.1885504044
 20
59.5121254366
 10
-28.2498906619
 20
61.293635223
 10
-27.5511570642
 20
63.3237780649
 10
-27.1017987844
 20
65.5750997631
 10
-26.9078926223
 20
68.0171550537
 10
-26.9720608262
 20
70.6169193281
 10
-27.2934356312
 20
73.3392352345
 10
-27.8676709944
 20
76.1472881203
 10
-28.6870013675
 20
79.0031038873
 10
-29.7403467129
 20
81.8680625265
 10
-31.0134623417
 20
84.703420387
 10
-32.4891315491
 20
87.4708341178
  0
LWPOLYLINE
  5
210
330
1E4
100
AcDbEntity
  8
0
  6
Continuous
 62
     7
370
    25
100
AcDbPolyline
 90
       28
 70
   128
 43
0.0
 10
-95.4776233007
 20
196.5966779773
 10
-97.1358901921
 20
199.2587230551
 10
-98.9543295525
 20
201.779399887
 10
-100.9083501092
 20
204.1246206429
 10
-102.9715270861
 20
206.2626702353
 10
-105.1159595539
 20
208.1646352114
 10
-107.3126477424
 20
209.8047947575
 10
-109.5318852121
 20
211.1609685295
 10
-111.7436605834
 20
212.2148166036
 10
-113.9180633885
 20
212.9520874924
 10
-116.0256885597
 20
213.362810872
 10
-118.0380340822
 20
213.4414324133
 10
-119.9278864349
 20
213.1868888948
 10
-121.6696886068
 20
212.6026225808
 10
-123.2398857115
 20
211.6965346711
 10
-124.6172435268
 20
210.4808784502
 10
-125.7831356512
 20
208.972093583
 10
-126.7217953936
 20
207.1905837966
 10
-127.4205289913
 20
205.1604409546
 10
-127.8698872712
 20
202.9091192565
 10
-128.0637934332
 20
200.4670639659
 10
-127.9996252293
 20
197.8672996915
 10
-127.6782504243
 20
195.1449837851
 10
-127.1040150611
 20
192.3369308993
 10
-126.284684688
 20
189.4811151323
 10
-125.2313393426
 20
186.6161564931
 10
-123.9582237138
 20
183.7807986326
 10
-122.4825545064
 20
181.0133849018
  0
LWPOLYLINE
  5
211
330
1E4
100
AcDbEntity
  8
0
  6
Continuous
 62
     7
370
    25
100
AcDbPolyline
 90
       28
 70
   128
 43
0.0
 10
4.5961940777
 20
-121.0517440869
 10
4.4723030715
 20
-119.7562260742
 10
4.1073090491
 20
-118.3875082619
 10
3.5208889327
 20
-117.0193785815
 10
2.7446567826
 20
-115.7255932582
 10
1.820459475
 20
-114.5759005936
 10
0.7981207258
 20
-113.6322808169
 10
-0.2672449183
 20
-112.9456047146
 10
-1.3182033197
 20
-112.5528911729
 10
-2.2980970389
 20
-112.4753114806
 10
-3.1540997519
 20
-112.7170479791
 10
-3.8400641308
 20
-113.265068591
 10
-4.3190096585
 20
-114.0898293834
 10
-4.5651162576
 20
-115.1468672884
 10
-4.5651162576
 20
-116.379197119
 10
-4.3190096585
 20
-117.720383655
 10
-3.8400641308
 20
-119.0981231832
 10
-3.1540997519
 20
-120.4381414089
 10
-2.2980970389
 20
-121.6681976028
 10
-1.3182033197
 20
-122.721979117
 10
-0.2672449183
 20
-123.5426763174
 10
0.7981207258
 20
-124.0860452055
 10
1.820459475
 20
-124.3227926238
 10
2.7446567826
 20
-124.2401554577
 10
3.5208889327
 20
-123.8425886984
 10
4.1073090491
 20
-123.1515252726
 10
4.4723030715
 20
-122.2042205885
 10
4.5961940777
 20
-121.0517440869
  0
LWPOLYLINE
  5
212
330
1E4
100
AcDbEntity
  8
0
  6
Continuous
 62
     7
370
    25
100
AcDbPolyline
 90
       28
 70
   128
 43
0.0
 10
-97.9342891943
 20
56.5362617437
 10
-98.0581802005
 20
57.8317797564
 10
-98.4231742229
 20
59.2004975687
 10
-99.0095943393
 20
60.5686272491
 10
-99.7858264894
 20
61.8624125724
 10
-100.7100237971
 20
63.012105237
 10
-101.7323625463
 20
63.9557250137
 10
-102.7977281903
 20
64.642401116
 10
-103.8486865917
 20
65.0351146577
 10
-104.8285803109
 20
65.1126943499
 10
-105.6845830239
 20
64.8709578515
 10
-106.3705474029
 20
64.3229372396
 10
-106.8494929306
 20
63.4981764472
 10
-107.0955995297
 20
62.4411385422
 10
-107.0955995297
 20
61.2088087116
 10
-106.8494929306
 20
59.8676221756
 10
-106.3705474029
 20
58.4898826474
 10
-105.6845830239
 20
57.1498644217
 10
-104.8285803109
 20
55.9198082278
 10
-103.8486865917
 20
54.8660267136
 10
-102.7977281903
 20
54.0453295132
 10
-101.7323625463
 20
53.5019606251
 10
-100.7100237971
 20
53.2652132068
 10
-99.7858264894
 20
53.3478503729
 10
-99.0095943393
 20
53.7454171322
 10
-98.4231742229
 20
54.436480558
 10
-98.0581802005
 20
55.3837852421
 10
-97.9342891943
 20
56.5362617437
  0
LWPOLYLINE
  5
213
330
1E4
100
AcDbEntity
  8
0
  6
Continuous
 62
     7
370
    25
100
AcDbPolyline
 90
       28
 70
   128
 43
0.0
 10
4.5961940777
 20
115.74509136
 10
4.4723030715
 20
117.0406093727
 10
4.1073090491
 20
118.409327185
 10
3.5208889327
 20
119.7774568654
 10
2.7446567826
 20
121.0712421887
 10
1.820459475
 20
122.2209348533
 10
0.7981207258
 20
123.1645546299
 10
-0.2672449183
 20
123.8512307323
 10
-1.3182033197
 20
124.243944274
 10
-2.2980970389
 20
124.3215239662
 10
-3.1540997519
 20
124.0797874678
 10
-3.8400641308
 20
123.5317668559
 10
-4.3190096585
 20
122.7070060635
 10
-4.5651162576
 20
121.6499681585
 10
-4.5651162576
 20
120.4176383279
 10
-4.3190096585
 20
119.0764517919
 10
-3.8400641308
 20
117.6987122637
 10
-3.1540997519
 20
116.358694038
 10
-2.2980970389
 20
115.1286378441
 10
-1.3182033197
 20
114.0748563298
 10
-0.2672449183
 20
113.2541591294
 10
0.7981207258
 20
112.7107902414
 10
1.820459475
 20
112.4740428231
 10
2.7446567826
 20
112.5566799891
 10
3.5208889327
 20
112.9542467485
 10
4.1073090491
 20
113.6453101743
 10
4.4723030715
 20
114.5926148584
 10
4.5961940777
 20
115.74509136
  0
LWPOLYLINE
  5
214
330
1E4
100
AcDbEntity
  8
0
  6
Continuous
 62
     7
370
    25
100
AcDbPolyline
 90
       28
 70
   128
 43
0.0
 10
107.1266773498
 20
-61.8429144706
 10
107.0027863436
 20
-60.5473964579
 10
106.6377923212
 20
-59.1786786456
 10
106.0513722048
 20
-57.8105489652
 10
105.2751400547
 20
-56.5167636419
 10
104.350942747
 20
-55.3670709773
 10
103.3286039979
 20
-54.4234512006
 10
102.2632383538
 20
-53.7367750983
 10
101.2122799524
 20
-53.3440615566
 10
100.2323862332
 20
-53.2664818644
 10
99.3763835202
 20
-53.5082183628
 10
98.6904191412
 20
-54.0562389747
 10
98.2114736135
 20
-54.8809997671
 10
97.9653670144
 20
-55.9380376721
 10
97.9653670144
 20
-57.1703675027
 10
98.2114736135
 20
-58.5115540387
 10
98.6904191412
 20
-59.8892935669
 10
99.3763835202
 20
-61.2293117926
 10
100.2323862332
 20
-62.4593679865
 10
101.2122799524
 20
-63.5131495007
 10
102.2632383538
 20
-64.3338467011
 10
103.3286039979
 20
-64.8772155892
 10
104.350942747
 20
-65.1139630075
 10
105.2751400547
 20
-65.0313258415
 10
106.0513722048
 20
-64.6337590821
 10
106.6377923212
 20
-63.9426956563
 10
107.0027863436
 20
-62.9953909722
 10
107.1266773498
 20
-61.8429144706
  0
LWPOLYLINE
  5
215
330
1E4
100
AcDbEntity
  8
0
  6
Continuous
 62
     7
370
    25
100
AcDbPolyline
 90
       42
 70
   128
 43
0.0
 10
10.6066017178
 20
-6.1230608387
 10
10.4822968405
 20
-4.1816356034
 10
10.1122958097
 20
-2.1421963738
 10
9.5052711359
 20
-0.0525458769
 10
8.6754509629
 20
2.0383362509
 10
7.6422855724
 20
4.0814415046
 10
6.4299914853
 20
6.0288812287
 10
5.0669838477
 20
7.8350090866
 10
3.5852104032
 20
9.4574909721
 10
2.0194026655
 20
10.8582972851
 10
0.406261841
 20
12.0045943128
 10
-1.2164014168
 20
12.8695138244
 10
-2.8105532564
 20
13.4327828397
 10
-4.3388281097
 20
13.6811988103
 10
-5.7654045096
 20
13.6089390764
 10
-7.0568447143
 20
13.217697345
 10
-8.18287846
 20
12.5166439906
 10
-9.11711247
 20
11.5222111097
 10
-9.8376490911
 20
10.2577073662
 10
-10.3275995555
 20
8.752771656
 10
-10.5754798396
 20
7.0426783967
 10
-10.5754798396
 20
5.1675107249
 10
-10.3275995555
 20
3.1712209815
 10
-9.8376490911
 20
1.100600506
 10
-9.11711247
 20
-0.9958171124
 10
-8.18287846
 20
-3.0688936218
 10
-7.0568447143
 20
-5.0700378657
 10
-5.7654045096
 20
-6.9523447193
 10
-4.3388281097
 20
-8.6716945051
 10
-2.8105532564
 20
-10.1877871215
 10
-1.2164014168
 20
-11.4650866426
 10
0.406261841
 20
-12.4736542501
 10
2.0194026655
 20
-13.1898499742
 10
3.5852104032
 20
-13.5968867941
 10
5.0669838477
 20
-13.6852241117
 10
6.4299914853
 20
-13.4527913752
 10
7.6422855724
 20
-12.905036611
 10
8.6754509629
 20
-12.0547987263
 10
9.5052711359
 20
-10.9220065767
 10
10.1122958097
 20
-9.53321185
 10
10.4822968405
 20
-7.9209667175
 10
10.6066017178
 20
-6.1230608387
  0
LWPOLYLINE
  5
216
330
1E4
100
AcDbEntity
  8
0
  6
Continuous
 62
     7
370
    25
100
AcDbPolyline
 90
       42
 70
   128
 43
0.0
 10
10.6066017178
 20
-102.4748766412
 10
10.4822968405
 20
-100.5334514059
 10
10.1122958097
 20
-98.4940121763
 10
9.5052711359
 20
-96.4043616794
 10
8.6754509629
 20
-94.3134795516
 10
7.6422855724
 20
-92.2703742979
 10
6.4299914853
 20
-90.3229345739
 10
5.0669838477
 20
-88.516806716
 10
3.5852104032
 20
-86.8943248304
 10
2.0194026655
 20
-85.4935185174
 10
0.406261841
 20
-84.3472214897
 10
-1.2164014168
 20
-83.4823019781
 10
-2.8105532564
 20
-82.9190329628
 10
-4.3388281097
 20
-82.6706169922
 10
-5.7654045096
 20
-82.7428767261
 10
-7.0568447143
 20
-83.1341184575
 10
-8.18287846
 20
-83.8351718119
 10
-9.11711247
 20
-84.8296046928
 10
-9.8376490911
 20
-86.0941084363
 10
-10.3275995555
 20
-87.5990441465
 10
-10.5754798396
 20
-89.3091374058
 10
-10.5754798396
 20
-91.1843050776
 10
-10.3275995555
 20
-93.180594821
 10
-9.8376490911
 20
-95.2512152965
 10
-9.11711247
 20
-97.3476329149
 10
-8.18287846
 20
-99.4207094243
 10
-7.0568447143
 20
-101.4218536682
 10
-5.7654045096
 20
-103.3041605218
 10
-4.3388281097
 20
-105.0235103076
 10
-2.8105532564
 20
-106.5396029241
 10
-1.2164014168
 20
-107.8169024451
 10
0.406261841
 20
-108.8254700527
 10
2.0194026655
 20
-109.5416657768
 10
3.5852104032
 20
-109.9487025966
 10
5.0669838477
 20
-110.0370399143
 10
6.4299914853
 20
-109.8046071778
 10
7.6422855724
 20
-109.2568524135
 10
8.6754509629
 20
-108.4066145288
 10
9.5052711359
 20
-107.2738223792
 10
10.1122958097
 20
-105.8850276525
 10
10.4822968405
 20
-104.27278252
 10
10.6066017178
 20
-102.4748766412
  0
LWPOLYLINE
  5
217
330
1E4
100
AcDbEntity
  8
0
  6
Continuous
 62
     7
370
    25
100
AcDbPolyline
 90
       42
 70
   128
 43
0.0
 10
10.6066017178
 20
173.5159177762
 10
10.4822968405
 20
175.4573430114
 10
10.1122958097
 20
177.496782241
 10
9.5052711359
 20
179.586432738
 10
8.6754509629
 20
181.6773148658
 10
7.6422855724
 20
183.7204201194
 10
6.4299914853
 20
185.6678598435
 10
5.0669838477
 20
187.4739877014
 10
3.5852104032
 20
189.096469587
 10
2.0194026655
 20
190.4972759
 10
0.406261841
 20
191.6435729277
 10
-1.2164014168
 20
192.5084924393
 10
-2.8105532564
 20
193.0717614546
 10
-4.3388281097
 20
193.3201774252
 10
-5.7654045096
 20
193.2479176913
 10
-7.0568447143
 20
192.8566759599
 10
-8.18287846
 20
192.1556226055
 10
-9.11711247
 20
191.1611897246
 10
-9.8376490911
 20
189.896685981
 10
-10.3275995555
 20
188.3917502709
 10
-10.5754798396
 20
186.6816570116
 10
-10.5754798396
 20
184.8064893398
 10
-10.3275995555
 20
182.8101995963
 10
-9.8376490911
 20
180.7395791209
 10
-9.11711247
 20
178.6431615025
 10
-8.18287846
 20
176.5700849931
 10
-7.0568447143
 20
174.5689407491
 10
-5.7654045096
 20
172.6866338956
 10
-4.3388281097
 20
170.9672841098
 10
-2.8105532564
 20
169.4511914933
 10
-1.2164014168
 20
168.1738919722
 10
0.406261841
 20
167.1653243647
 10
2.0194026655
 20
166.4491286406
 10
3.5852104032
 20
166.0420918207
 10
5.0669838477
 20
165.9537545031
 10
6.4299914853
 20
166.1861872396
 10
7.6422855724
 20
166.7339420039
 10
8.6754509629
 20
167.5841798885
 10
9.5052711359
 20
168.7169720381
 10
10.1122958097
 20
170.1057667649
 10
10.4822968405
 20
171.7180118973
 10
10.6066017178
 20
173.5159177762
  0
LWPOLYLINE
  5
219
330
1E4
100
AcDbEntity
  8
0
  6
Continuous
 62
     7
370
    25
100
AcDbPolyline
 90
       10
 70
   128
 43
0.0
 10
54.8457853155
 20
190.3821654924
 10
54.7953496037
 20
190.3797239862
 10
53.0378568507
 20
190.4727753786
 10
51.1880693537
 20
190.9040390983
 10
49.2804451538
 20
191.6654815181
 10
47.3505196805
 20
192.7429184064
 10
45.4342437938
 20
194.1162791526
 10
43.5673140879
 20
195.7599806446
 10
41.7845079306
 20
197.6434038334
 10
40.1190356276
 20
199.7314641088
  0
LWPOLYLINE
  5
21B
330
1E4
100
AcDbEntity
  8
0
  6
Continuous
 62
     7
370
    25
100
AcDbPolyline
 90
       19
 70
   128
 43
0.0
 10
40.1190356276
 20
199.7314641088
 10
36.6843067342
 20
204.2284869329
 10
33.1125547603
 20
208.5356274553
 10
29.419553236
 20
212.6338645314
 10
25.6216111525
 20
216.5050995734
 10
21.7355009381
 20
220.1322364775
 10
17.7783843882
 20
223.4992571233
 10
13.7677368757
 20
226.5912921125
 10
9.7212701761
 20
229.3946864359
 10
5.6568542495
 20
231.8970597753
 10
1.5924383229
 20
234.0873611784
 10
-2.4540283767
 20
235.9559178611
 10
-6.4646758892
 20
237.4944779248
 10
-10.4217924391
 20
238.6962467981
 10
-14.3079026535
 20
239.5559172432
 10
-18.105844737
 20
240.0696927932
 10
-21.7988462613
 20
240.2353045185
 10
-25.3705982352
 20
240.0520210464
 10
-28.8053271286
 20
239.5206517912
  0
LWPOLYLINE
  5
21E
330
1E4
100
AcDbEntity
  8
0
  6
Continuous
 62
     7
370
    25
100
AcDbPolyline
 90
       18
 70
   128
 43
0.0
 10
-4.1173239376
 20
193.3034922347
 10
-4.1807948416
 20
193.1623184283
 10
-4.670745306
 20
191.6573827182
 10
-4.9186255901
 20
189.9472894589
 10
-4.9186255901
 20
188.0721217871
 10
-4.670745306
 20
186.0758320436
 10
-4.1807948416
 20
184.0052115682
 10
-3.4602582205
 20
181.9087939497
 10
-2.5260242105
 20
179.8357174404
 10
-1.3999904648
 20
177.8345731964
 10
-0.1085502601
 20
175.9522663429
 10
1.3180261398
 20
174.2329165571
 10
2.8463009931
 20
172.7168239406
 10
4.4404528327
 20
171.4395244195
 10
6.0631160904
 20
170.430956812
 10
7.676256915
 20
169.7147610879
 10
9.2420646527
 20
169.307724268
 10
9.7741781871
 20
169.2400974423
  0
LWPOLYLINE
  5
21F
330
1E4
100
AcDbEntity
  8
0
  6
Continuous
 62
     7
370
    25
100
AcDbPolyline
 90
       21
 70
   128
 43
0.0
 10
-28.8053271286
 20
239.5206517912
 10
-30.4707994316
 20
239.3555049066
 10
-32.2536055889
 20
239.530465893
 10
-34.1205352949
 20
240.0422755582
 10
-36.0368111815
 20
240.8813998566
 10
-37.9667366548
 20
242.0322074902
 10
-39.8743608547
 20
243.4732610902
 10
-41.7241483517
 20
245.1777165546
 10
-43.4816411048
 20
247.113823103
 10
-45.1141003491
 20
249.2455147337
 10
-46.5911164578
 20
251.5330820649
 10
-47.8851754154
 20
253.9339120456
 10
-48.9721713518
 20
256.4032817556
 10
-49.8318555896
 20
258.8951915096
 10
-50.4482138379
 20
261.3632217436
 10
-50.8097645087
 20
263.7613977242
 10
-50.9097725972
 20
266.0450459703
 10
-50.7463751419
 20
268.171626436
 10
-50.3226159282
 20
270.1015249507
 10
-49.6463887885
 20
271.7987911568
 10
-49.1279357698
 20
272.6870206739
  0
LWPOLYLINE
  5
221
330
1E4
100
AcDbEntity
  8
0
  6
Continuous
 62
     7
370
    25
100
AcDbPolyline
 90
       11
 70
   128
 43
0.0
 10
105.9521857682
 20
-64.7085224925
 10
105.1821337015
 20
-64.908592322
 10
104.2022399823
 20
-64.8310126297
 10
103.1512815809
 20
-64.4382990881
 10
102.0859159368
 20
-63.7516229857
 10
101.0635771877
 20
-62.808003209
 10
100.13937988
 20
-61.6583105445
 10
99.3631477299
 20
-60.3645252212
 10
98.7767276135
 20
-58.9963955407
 10
98.4117335911
 20
-57.6276777284
 10
98.2878425849
 20
-56.3321597158
  0
LWPOLYLINE
  5
223
330
1E4
100
AcDbEntity
  8
0
  6
Continuous
 62
     7
370
    25
100
AcDbPolyline
 90
       11
 70
   128
 43
0.0
 10
-4.2426406871
 20
121.2558461148
 10
-4.1187496809
 20
119.9603281021
 10
-3.7537556585
 20
118.5916102898
 10
-3.1673355421
 20
117.2234806094
 10
-2.391103392
 20
115.9296952861
 10
-1.4669060844
 20
114.7800026215
 10
-0.4445673352
 20
113.8363828449
 10
0.6207983089
 20
113.1497067425
 10
1.6717567102
 20
112.7569932009
 10
2.6516504294
 20
112.6794135086
 10
3.4217024965
 20
112.8794833382
  0
LWPOLYLINE
  5
226
330
1E4
100
AcDbEntity
  8
0
  6
Continuous
 62
     7
370
    25
100
AcDbPolyline
 90
       28
 70
   128
 43
0.0
 10
65.1627895096
 20
6.4308371775
 10
63.503983434
 20
5.6843972074
 10
61.6850788731
 20
5.2642815219
 10
59.7306733907
 20
5.176171465
 10
57.6671969683
 20
5.4212585741
 10
55.5225545847
 20
5.9962284664
 10
53.3257488489
 20
6.8933056605
 10
51.1064877899
 20
8.1003587263
 10
48.8947831066
 20
9.6010643417
 10
46.7205443105
 20
11.3751280377
 10
44.6131742515
 20
13.3985586463
 10
42.6011714945
 20
15.6439927396
 10
40.7117449253
 20
18.0810646735
 10
38.9704457968
 20
20.6768172308
 10
37.4008221927
 20
23.3961473112
 10
36.0241005796
 20
26.2022806403
 10
34.8588987554
 20
29.0572690787
 10
33.920974076
 20
31.9225038055
 10
33.2230103637
 20
34.7592374362
 10
32.7744463803
 20
37.5291080149
 10
32.5813481843
 20
40.1946577937
 10
32.6463270974
 20
42.7198397845
 10
32.9685043913
 20
45.0705052327
 10
33.5435231709
 20
47.2148654208
 10
34.3636072935
 20
49.1239215558
 10
35.4176665283
 20
50.7718569285
 10
36.6914465323
 20
52.1363860398
 10
38.0438367575
 20
53.1262434955
  0
LWPOLYLINE
  5
22D
330
1E4
100
AcDbEntity
  8
0
  6
Continuous
 62
     7
370
    25
100
AcDbPolyline
 90
       13
 70
   128
 43
0.0
 10
-116.8257002569
 20
184.2790173491
 10
-118.3013694643
 20
187.0464310799
 10
-119.5744850931
 20
189.8817889404
 10
-120.6278304385
 20
192.7467475795
 10
-121.4471608116
 20
195.6025633466
 10
-122.0213961748
 20
198.4106162324
 10
-122.3427709798
 20
201.1329321387
 10
-122.4069391837
 20
203.7326964132
 10
-122.2130330217
 20
206.1747517038
 10
-121.7636747418
 20
208.4260734019
 10
-121.0649411441
 20
210.4562162438
 10
-120.1262814017
 20
212.2377260303
 10
-119.3510170387
 20
213.3022790093
  0
LWPOLYLINE
  5
22E
330
1E4
100
AcDbEntity
  8
0
  6
Continuous
 62
     7
370
    25
100
AcDbPolyline
 90
       13
 70
   128
 43
0.0
 10
-29.9638147673
 20
58.4475724576
 10
-31.2767977238
 20
58.3084190535
 10
-33.2891432463
 20
58.3870405948
 10
-35.3967684175
 20
58.7977639744
 10
-37.5711712227
 20
59.5350348633
 10
-39.7829465939
 20
60.5888829374
 10
-42.0021840636
 20
61.9450567094
 10
-44.1988722521
 20
63.5852162555
 10
-46.34330472
 20
65.4871812315
 10
-48.4064816969
 20
67.625230824
 10
-50.3605022535
 20
69.9704515799
 10
-52.1789416139
 20
72.4911284117
 10
-53.8372085053
 20
75.1531734895
  0
LWPOLYLINE
  5
22F
330
1E4
100
AcDbEntity
  8
0
  6
Continuous
 62
     7
370
    25
100
AcDbPolyline
 90
       13
 70
   128
 43
0.0
 10
38.1459857986
 20
-84.2052016705
 10
36.6703165912
 20
-81.4377879397
 10
35.3972009624
 20
-78.6024300792
 10
34.343855617
 20
-75.73747144
 10
33.5245252439
 20
-72.881655673
 10
32.9502898807
 20
-70.0736027872
 10
32.6289150757
 20
-67.3512868808
 10
32.5647468718
 20
-64.7515226064
 10
32.7586530338
 20
-62.3094673158
 10
33.2080113137
 20
-60.0581456176
 10
33.9067449114
 20
-58.0280027757
 10
34.8454046539
 20
-56.2464929893
 10
35.6206690168
 20
-55.1819400103
  0
LWPOLYLINE
  5
230
330
1E4
100
AcDbEntity
  8
0
  6
Continuous
 62
     7
370
    25
100
AcDbPolyline
 90
       13
 70
   128
 43
0.0
 10
125.0078712882
 20
-210.036646562
 10
123.6948883317
 20
-210.175799966
 10
121.6825428092
 20
-210.0971784247
 10
119.574917638
 20
-209.6864550451
 10
117.4005148329
 20
-208.9491841563
 10
115.1887394616
 20
-207.8953360822
 10
112.9695019919
 20
-206.5391623102
 10
110.7728138034
 20
-204.8990027641
 10
108.6283813356
 20
-202.997037788
 10
106.5652043587
 20
-200.8589881956
 10
104.611183802
 20
-198.5137674397
 10
102.7927444416
 20
-195.9930906079
 10
101.1344775502
 20
-193.3310455301
  0
LWPOLYLINE
  5
232
330
1E4
100
AcDbEntity
  8
0
  6
Continuous
 62
     7
370
    25
100
AcDbPolyline
 90
       14
 70
   128
 43
0.0
 10
9.7741781871
 20
-10.3988811726
 10
8.4674075059
 20
-10.1671503924
 10
6.8732556663
 20
-9.6038813771
 10
5.2505924085
 20
-8.7389618655
 10
3.637451584
 20
-7.5926648378
 10
2.0716438463
 20
-6.1918585248
 10
0.5898704018
 20
-4.5693766393
 10
-0.7731372358
 20
-2.7632487814
 10
-1.9854313229
 20
-0.8158090573
 10
-3.0185967135
 20
1.2272961964
 10
-3.8484168864
 20
3.3181783242
 10
-4.4554415602
 20
5.4078288211
 10
-4.825442591
 20
7.4472680507
 10
-4.9497474683
 20
9.388693286
  0
SPLINE
  5
233
330
1E4
100
AcDbEntity
  8
0
  6
Continuous
 62
     7
370
    25
100
AcDbSpline
210
0.0
220
0.0
230
1.0
 70
     8
 71
     3
 72
    28
 73
    24
 74
     0
 42
0.000000001
 43
0.00000001
 40
0.0
 40
0.0
 40
0.0
 40
0.0
 40
0.125
 40
0.125
 40
0.2499999999999999
 40
0.2499999999999999
 40
0.3125
 40
0.3125
 40
0.3749999999999999
 40
0.3749999999999999
 40
0.4374999999999999
 40
0.4374999999999999
 40
0.4999999999999999
 40
0.4999999999999999
 40
0.6249999999999999
 40
0.6249999999999999
 40
0.6874999999999999
 40
0.6874999999999999
 40
0.7499999999999998
 40
0.7499999999999998
 40
0.8749999999999999
 40
0.8749999999999999
 40
1.0
 40
1.0
 40
1.0
 40
1.0
 10
1.917764037900117
 20
-102.3894661403886
 30
0.0
 10
1.991018684983946
 20
-102.7729484274501
 30
0.0
 10
2.084590280346357
 20
-103.1444367540647
 30
0.0
 10
2.325470893859718
 20
-103.8595242211279
 30
0.0
 10
2.472626289340659
 20
-104.2031882557379
 30
0.0
 10
2.74946735582615
 20
-104.6925650837135
 30
0.0
 10
2.851762535974816
 20
-104.851975197866
 30
0.0
 10
3.074642491392625
 20
-105.1550252923528
 30
0.0
 10
3.195405517531313
 20
-105.299167853981
 30
0.0
 10
3.457506916559498
 20
-105.5715454265798
 30
0.0
 10
3.598847122718651
 20
-105.699780394534
 30
0.0
 10
3.904135810112186
 20
-105.9390294134094
 30
0.0
 10
4.069286219104043
 20
-106.0506012828454
 30
0.0
 10
4.588029489533014
 20
-106.3501461706318
 30
0.0
 10
4.966782278815679
 20
-106.5053248634257
 30
0.0
 10
5.579001987997213
 20
-106.6773398895326
 30
0.0
 10
5.791604287050713
 20
-106.7246940418909
 30
0.0
 10
6.221810059453332
 20
-106.7988544482462
 30
0.0
 10
6.43992035623886
 20
-106.8259513549284
 30
0.0
 10
7.10173307948931
 20
-106.881204317306
 30
0.0
 10
7.552845028878197
 20
-106.8835301645897
 30
0.0
 10
8.468820029437785
 20
-106.8334551394477
 30
0.0
 10
8.932974731273347
 20
-106.7808402455613
 30
0.0
 10
9.395944461084719
 20
-106.7065278074518
 30
0.0
  0
LWPOLYLINE
  5
235
330
1E4
100
AcDbEntity
  8
0
  6
Continuous
 62
     7
370
    25
100
AcDbPolyline
 90
       12
 70
   128
 43
0.0
 10
-4.1173239376
 20
-82.6873021826
 10
-4.3613429379
 20
-83.2800260644
 10
-4.7781296455
 20
-84.867807881
 10
-4.9462677893
 20
-86.6514201157
 10
-4.8617509129
 20
-88.5883622122
 10
-4.5265929148
 20
-90.6324800148
 10
-3.948780061
 20
-92.7350655465
 10
-3.1420806847
 20
-94.8460176401
 10
-2.1257171099
 20
-96.915035767
 10
-0.9239076148
 20
-98.8928186163
 10
0.43471065
 20
-100.732238864
 10
1.9177640379
 20
-102.3894661404
  0
LWPOLYLINE
  5
236
330
1E4
100
AcDbEntity
  8
0
  6
Continuous
 62
     7
370
    25
100
AcDbPolyline
 90
       11
 70
   128
 43
0.0
 10
-106.7731239592
 20
62.0470164985
 10
-106.649232953
 20
60.7514984859
 10
-106.2842389306
 20
59.3827806736
 10
-105.6978188142
 20
58.0146509932
 10
-104.9215866641
 20
56.7208656698
 10
-103.9973893564
 20
55.5711730053
 10
-102.9750506072
 20
54.6275532286
 10
-101.9096849632
 20
53.9408771262
 10
-100.8587265618
 20
53.5481635846
 10
-99.8788328426
 20
53.4705838923
 10
-99.1087807759
 20
53.6706537218
  0
LWPOLYLINE
  5
239
330
1E4
100
AcDbEntity
  8
0
  6
Continuous
 62
     7
370
    25
100
AcDbPolyline
 90
       15
 70
   128
 43
0.0
 10
-3.0681491062
 20
-112.6753813106
 10
-3.4865107402
 20
-113.060966563
 10
-3.9654562679
 20
-113.8857273554
 10
-4.211562867
 20
-114.9427652604
 10
-4.211562867
 20
-116.175095091
 10
-3.9654562679
 20
-117.5162816271
 10
-3.4865107402
 20
-118.8940211552
 10
-2.8005463613
 20
-120.234039381
 10
-1.9445436483
 20
-121.4640955748
 10
-0.9646499291
 20
-122.5178770891
 10
0.0863084723
 20
-123.3385742895
 10
1.1516741164
 20
-123.8819431775
 10
2.1740128656
 20
-124.1186905958
 10
3.0982101732
 20
-124.0360534298
 10
3.4217024953
 20
-123.9173521092
  0
LWPOLYLINE
  5
23E
330
1E4
100
AcDbEntity
  8
0
  6
Continuous
 62
     7
370
    25
100
AcDbPolyline
 90
       23
 70
   128
 43
0.0
 10
54.7847900193
 20
-269.4213882266
 10
51.9539265107
 20
-269.8481386946
 10
47.7234821066
 20
-270.1811751149
 10
43.3686613507
 20
-270.1727749934
 10
38.9023399297
 20
-269.8229631661
 10
34.3377231988
 20
-269.1327739049
 10
29.6883071381
 20
-268.1042478586
 10
24.9678384499
 20
-266.7404260202
 10
20.1902739143
 20
-265.0453407354
 10
15.3697391239
 20
-263.0240037803
 10
10.5204867195
 20
-260.6823915435
 10
5.6568542495
 20
-258.0274273561
 10
0.7932217795
 20
-255.0669610215
 10
-4.056030625
 20
-251.8097456064
 10
-8.8765654153
 20
-248.2654115612
 10
-13.6541299509
 20
-244.4444382459
 10
-18.3745986391
 20
-240.3581229463
 10
-23.0240146998
 20
-236.0185474722
 10
-27.5886314307
 20
-231.4385424351
 10
-32.0549528518
 20
-226.6316493132
 10
-36.4097736076
 20
-221.6120804133
 10
-40.6402180117
 20
-216.3946768508
 10
-44.7337781148
 20
-210.9948646687
  0
LWPOLYLINE
  5
23F
330
1E4
100
AcDbEntity
  8
0
  6
Continuous
 62
     7
370
    25
100
AcDbPolyline
 90
       28
 70
   128
 43
0.0
 10
-89.8655192637
 20
-83.0288082562
 10
-91.5243253393
 20
-83.7752482263
 10
-93.3432299002
 20
-84.1953639118
 10
-95.2976353826
 20
-84.2834739687
 10
-97.361111805
 20
-84.0383868597
 10
-99.5057541886
 20
-83.4634169674
 10
-101.7025599244
 20
-82.5663397733
 10
-103.9218209834
 20
-81.3592867075
 10
-106.1335256667
 20
-79.858581092
 10
-108.3077644628
 20
-78.084517396
 10
-110.4151345218
 20
-76.0610867874
 10
-112.4271372788
 20
-73.8156526941
 10
-114.316563848
 20
-71.3785807603
 10
-116.0578629765
 20
-68.782828203
 10
-117.6274865806
 20
-66.0634981226
 10
-119.0042081937
 20
-63.2573647934
 10
-120.1694100179
 20
-60.402376355
 10
-121.1073346973
 20
-57.5371416282
 10
-121.8052984096
 20
-54.7004079975
 10
-122.253862393
 20
-51.9305374188
 10
-122.446960589
 20
-49.26498764
 10
-122.3819816759
 20
-46.7398056493
 10
-122.059804382
 20
-44.389140201
 10
-121.4847856024
 20
-42.2447800129
 10
-120.6647014798
 20
-40.3357238779
 10
-119.610642245
 20
-38.6877885053
 10
-118.336862241
 20
-37.3232593939
 10
-116.9844720158
 20
-36.3334019382
  0
LWPOLYLINE
  5
240
330
1E4
100
AcDbEntity
  8
0
  6
Continuous
 62
     7
370
    25
100
AcDbPolyline
 90
       12
 70
   128
 43
0.0
 10
-44.7337781148
 20
-210.9948646687
 10
-46.2508919658
 20
-208.7410639191
 10
-47.5913864042
 20
-206.3635067387
 10
-48.7302905549
 20
-203.9064825195
 10
-49.6463887885
 20
-201.4157609736
 10
-50.3226159282
 20
-198.9377395309
 10
-50.7463751419
 20
-196.5185790422
 10
-50.9097725972
 20
-194.2033438903
 10
-50.8097645087
 20
-192.0351625254
 10
-50.4482138379
 20
-190.0544240639
 10
-49.8318555896
 20
-188.2980259158
 10
-49.1889310661
 20
-187.1165330451
  0
LINE
  5
242
330
1E4
100
AcDbEntity
  8
0
  6
Continuous
 62
     7
370
    25
100
AcDbLine
 10
174.9857782113
 20
-303.1171018332
 30
0.0
 11
180.6426324608
 21
-299.8514693859
 31
0.0
  0
LINE
  5
243
330
1E4
100
AcDbEntity
  8
0
  6
Continuous
 62
     7
370
    25
100
AcDbLine
 10
-169.3289239618
 20
306.3827342805
 30
0.0
 11
-174.9857782113
 21
303.1171018332
 31
0.0
  0
LINE
  5
244
330
1E4
100
AcDbEntity
  8
0
  6
Continuous
 62
     7
370
    25
100
AcDbLine
 10
-95.5223735132
 20
-86.2944407035
 30
0.0
 11
-32.5108673666
 21
-49.9334235272
 31
0.0
  0
LINE
  5
245
330
1E4
100
AcDbEntity
  8
0
  6
Continuous
 62
     7
370
    25
100
AcDbLine
 10
-59.5059352601
 20
-3.1652047302
 30
0.0
 11
-122.5174414067
 21
-39.5262219065
 31
0.0
  0
LINE
  5
246
330
1E4
100
AcDbEntity
  8
0
  6
Continuous
 62
     7
370
    25
100
AcDbLine
 10
122.4825545064
 20
-181.0133849018
 30
0.0
 11
59.4940627548
 21
-71.8875410422
 31
0.0
  0
LINE
  5
247
330
1E4
100
AcDbEntity
  8
0
  6
Continuous
 62
     7
370
    25
100
AcDbLine
 10
32.4891315491
 20
-87.4708341178
 30
0.0
 11
95.4776233007
 21
-196.5966779773
 31
0.0
  0
LINE
  5
248
330
1E4
100
AcDbEntity
  8
0
  6
Continuous
 62
     7
370
    25
100
AcDbLine
 10
95.5223735132
 20
86.2944407035
 30
0.0
 11
32.5108673666
 21
49.9334235272
 31
0.0
  0
LINE
  5
249
330
1E4
100
AcDbEntity
  8
0
  6
Continuous
 62
     7
370
    25
100
AcDbLine
 10
59.5059352601
 20
3.1652047302
 30
0.0
 11
122.5174414067
 21
39.5262219065
 31
0.0
  0
LINE
  5
24A
330
1E4
100
AcDbEntity
  8
0
  6
Continuous
 62
     7
370
    25
100
AcDbLine
 10
-122.4825545064
 20
181.0133849018
 30
0.0
 11
-59.4940627548
 21
71.8875410422
 31
0.0
  0
LINE
  5
24B
330
1E4
100
AcDbEntity
  8
0
  6
Continuous
 62
     7
370
    25
100
AcDbLine
 10
-32.4891315491
 20
87.4708341178
 30
0.0
 11
-95.4776233007
 21
196.5966779773
 31
0.0
  0
LINE
  5
24C
330
1E4
100
AcDbEntity
  8
0
  6
Continuous
 62
     7
370
    25
100
AcDbLine
 10
34.4621813781
 20
196.4658316615
 30
0.0
 11
40.1190356276
 21
199.7314641088
 31
0.0
  0
LINE
  5
24D
330
1E4
100
AcDbEntity
  8
0
  6
Continuous
 62
     7
370
    25
100
AcDbLine
 10
-34.4621813781
 20
236.2550193439
 30
0.0
 11
-28.8053271286
 21
239.5206517912
 31
0.0
  0
LINE
  5
24E
330
1E4
100
AcDbEntity
  8
0
  6
Continuous
 62
     7
370
    25
100
AcDbLine
 10
59.5059352601
 20
3.1652047302
 30
0.0
 11
65.1627895096
 21
6.4308371775
 31
0.0
  0
LINE
  5
24F
330
1E4
100
AcDbEntity
  8
0
  6
Continuous
 62
     7
370
    25
100
AcDbLine
 10
122.6413262653
 20
39.5990343855
 30
0.0
 11
65.1627895096
 21
6.4308371775
 31
0.0
  0
LINE
  5
250
330
1E4
100
AcDbEntity
  8
0
  6
Continuous
 62
     7
370
    25
100
AcDbLine
 10
-122.4825545064
 20
181.0133849018
 30
0.0
 11
-116.8257002569
 21
184.2790173491
 31
0.0
  0
LINE
  5
251
330
1E4
100
AcDbEntity
  8
0
  6
Continuous
 62
     7
370
    25
100
AcDbLine
 10
-59.4940627548
 20
71.8875410422
 30
0.0
 11
-53.8372085053
 21
75.1531734895
 31
0.0
  0
LINE
  5
252
330
1E4
100
AcDbEntity
  8
0
  6
Continuous
 62
     7
370
    25
100
AcDbLine
 10
-53.8372085053
 20
75.1531734895
 30
0.0
 11
-116.8257002569
 21
184.2790173491
 31
0.0
  0
LINE
  5
253
330
1E4
100
AcDbEntity
  8
0
  6
Continuous
 62
     7
370
    25
100
AcDbLine
 10
32.4891315491
 20
-87.4708341178
 30
0.0
 11
38.1459857986
 21
-84.2052016705
 31
0.0
  0
LINE
  5
254
330
1E4
100
AcDbEntity
  8
0
  6
Continuous
 62
     7
370
    25
100
AcDbLine
 10
95.4776233007
 20
-196.5966779773
 30
0.0
 11
101.1344775502
 21
-193.3310455301
 31
0.0
  0
LINE
  5
255
330
1E4
100
AcDbEntity
  8
0
  6
Continuous
 62
     7
370
    25
100
AcDbLine
 10
101.1344775502
 20
-193.3310455301
 30
0.0
 11
38.1459857986
 21
-84.2052016705
 31
0.0
  0
LINE
  5
256
330
1E4
100
AcDbEntity
  8
0
  6
Continuous
 62
     7
370
    25
100
AcDbLine
 10
9.3959444611
 20
-106.7065278075
 30
0.0
 11
9.7741781871
 21
-106.7506969751
 31
0.0
  0
LINE
  5
257
330
1E4
100
AcDbEntity
  8
0
  6
Continuous
 62
     7
370
    25
100
AcDbLine
 10
-95.5223735132
 20
-86.2944407035
 30
0.0
 11
-89.8655192637
 21
-83.0288082562
 31
0.0
  0
LINE
  5
258
330
1E4
100
AcDbEntity
  8
0
  6
Continuous
 62
     7
370
    25
100
AcDbLine
 10
-32.386982508
 20
-49.8606110482
 30
0.0
 11
-89.8655192637
 21
-83.0288082562
 31
0.0
  0
LINE
  5
259
330
1E4
100
AcDbEntity
  8
0
  6
Continuous
 62
     7
370
    25
100
AcDbLine
 10
-50.3906323643
 20
-214.260497116
 30
0.0
 11
-44.7337781148
 21
-210.9948646687
 31
0.0
  0
LINE
  5
25A
330
1E4
100
AcDbEntity
  8
0
  6
Continuous
 62
     8
370
    25
100
AcDbLine
 10
50.3906323643
 20
-272.4402828523
 30
0.0
 11
54.1114766808
 21
-270.2922851498
 31
0.0
  0
ARC
  5
25B
330
1E4
100
AcDbEntity
  8
0
  6
Continuous
 62
     7
370
    25
100
AcDbCircle
 10
101.5196150613
 20
-55.983235393
 30
0.0
 40
3.250554033078576
100
AcDbArc
 50
129.2645242957
 51
186.1621754801
  0
ARC
  5
25C
330
1E4
100
AcDbEntity
  8
0
  6
Continuous
 62
     7
370
    25
100
AcDbCircle
 10
121.2203851002
 20
-48.4001374417
 30
0.0
 40
23.14228310864887
100
AcDbArc
 50
194.4523652716
 51
225.5422581957
  0
ARC
  5
25D
330
1E4
100
AcDbEntity
  8
0
  6
Continuous
 62
     7
370
    25
100
AcDbCircle
 10
-1.010868211
 20
121.6047704376
 30
0.0
 40
3.250554032844502
100
AcDbArc
 50
129.2645242824
 51
186.1621754815
  0
ARC
  5
25E
330
1E4
100
AcDbEntity
  8
0
  6
Continuous
 62
     7
370
    25
100
AcDbCircle
 10
18.6899018281
 20
129.1878683889
 30
0.0
 40
23.1422831086491
100
AcDbArc
 50
194.4523652716
 51
225.5422581957
  0
ARC
  5
25F
330
1E4
100
AcDbEntity
  8
0
  6
Continuous
 62
     7
370
    25
100
AcDbCircle
 10
5.0965605914
 20
9.651800928
 30
0.0
 40
10.04975279609235
100
AcDbArc
 50
156.4665297594
 51
181.500204074
  0
ARC
  5
260
330
1E4
100
AcDbEntity
  8
0
  6
Continuous
 62
     7
370
    25
100
AcDbCircle
 10
-103.5413514828
 20
62.3959408213
 30
0.0
 40
3.250554033042315
100
AcDbArc
 50
129.2645242937
 51
186.1621754803
  0
ARC
  5
261
330
1E4
100
AcDbEntity
  8
0
  6
Continuous
 62
     7
370
    25
100
AcDbCircle
 10
-83.8405814439
 20
69.9790387726
 30
0.0
 40
23.1422831086499
100
AcDbArc
 50
194.4523652717
 51
225.5422581956
  0
ARC
  5
262
330
1E4
100
AcDbEntity
  8
0
  6
Continuous
 62
     7
370
    25
100
AcDbCircle
 10
18.686545422
 20
-107.61090467
 30
0.0
 40
23.13854935821921
100
AcDbArc
 50
194.449793431
 51
225.5448300363
  0
VIEWPORT
  5
37D
330
1E4
100
AcDbEntity
  8
0
100
AcDbViewport
 10
0.0
 20
0.0
 30
0.0
 40
205.6
 41
156.0
 68
     1
 69
     1
 12
0.0
 22
0.0000000001
 13
0.0
 23
0.0
 14
10.0
 24
10.0
 15
10.0
 25
10.0
 16
0.0
 26
0.0
 36
1.0
 17
0.0
 27
0.0
 37
0.0
 42
50.0
 43
0.0
 44
0.0
 45
714.0
 50
0.0
 51
0.0
 72
   100
 90
   557152
  1

281
     0
 71
     1
 74
     0
110
0.0
120
0.0
130
0.0
111
1.0
121
0.0
131
0.0
112
0.0
122
1.0
132
0.0
 79
     0
146
0.0
  0
ENDBLK
  5
1E7
330
1E4
100
AcDbEntity
  8
0
100
AcDbBlockEnd
  0
BLOCK
  5
265
330
263
100
AcDbEntity
  8
0
100
AcDbBlockBegin
  2
*Paper_Space8
 70
     0
 10
0.0
 20
0.0
 30
0.0
  3
*Paper_Space8
  1

  0
LINE
  5
267
330
263
100
AcDbEntity
  8
0
  6
Continuous
 62
     7
100
AcDbLine
 10
0.0
 20
-8.571673007
 30
0.0
 11
0.0
 21
-12.2285554331
 31
0.0
  0
LINE
  5
268
330
263
100
AcDbEntity
  8
0
  6
Continuous
 62
     7
100
AcDbLine
 10
0.0
 20
-12.2285554331
 30
0.0
 11
1.5796752718
 21
-7.0298615146
 31
0.0
  0
LINE
  5
269
330
263
100
AcDbEntity
  8
0
  6
Continuous
 62
     7
100
AcDbLine
 10
1.5796752718
 20
-7.0298615146
 30
0.0
 11
0.0
 21
-8.571673007
 31
0.0
  0
LINE
  5
26A
330
263
100
AcDbEntity
  8
0
  6
Continuous
 62
     7
100
AcDbLine
 10
0.0
 20
8.586909319
 30
0.0
 11
1.1582739099
 21
9.7174201637
 31
0.0
  0
LINE
  5
26B
330
263
100
AcDbEntity
  8
0
  6
Continuous
 62
     7
100
AcDbLine
 10
1.1582739099
 20
9.7174201637
 30
0.0
 11
0.0
 21
12.130017081
 31
0.0
  0
LINE
  5
26C
330
263
100
AcDbEntity
  8
0
  6
Continuous
 62
     7
100
AcDbLine
 10
0.0
 20
12.130017081
 30
0.0
 11
0.0
 21
8.586909319
 31
0.0
  0
LINE
  5
26D
330
263
100
AcDbEntity
  8
0
  6
Continuous
 62
     7
100
AcDbLine
 10
0.0
 20
8.586909319
 30
0.0
 11
-0.0206469703
 21
8.566757243
 31
0.0
  0
LINE
  5
26E
330
263
100
AcDbEntity
  8
0
  6
CENTERX2
 62
     7
100
AcDbLine
 10
-3.5810938923
 20
-3.4952574224
 30
0.0
 11
5.9301372143
 21
5.7879957179
 31
0.0
  0
LINE
  5
26F
330
263
100
AcDbEntity
  8
0
  6
CENTERX2
 62
     7
100
AcDbLine
 10
0.0
 20
-124.2892586018
 30
0.0
 11
11.7741425544
 21
-112.7973345157
 31
0.0
  0
LINE
  5
270
330
263
100
AcDbEntity
  8
0
  6
Continuous
 62
     7
100
AcDbLine
 10
3.7335631114
 20
-126.2167740019
 30
0.0
 11
3.7335631114
 21
-132.6455287572
 31
0.0
  0
LINE
  5
271
330
263
100
AcDbEntity
  8
0
  6
Continuous
 62
     7
100
AcDbLine
 10
3.7335631114
 20
-132.6455287572
 30
0.0
 11
0.2333476945
 21
-129.633091553
 31
0.0
  0
LINE
  5
272
330
263
100
AcDbEntity
  8
0
  6
Continuous
 62
     7
100
AcDbLine
 10
0.2333476945
 20
-129.633091553
 30
0.0
 11
3.7335631114
 21
-126.2167740019
 31
0.0
  0
LWPOLYLINE
  5
275
330
263
100
AcDbEntity
  8
0
  6
Continuous
 62
     7
370
    25
100
AcDbPolyline
 90
      199
 70
   128
 43
0.0
 10
309.5463425871
 20
-84.1280631394
 10
309.3904991232
 20
-74.5670567355
 10
308.9231256525
 20
-64.9309676263
 10
308.1446927806
 20
-55.2294985366
 10
307.0559843234
 20
-45.4724180236
 10
305.658096518
 20
-35.6695506401
 10
303.952436919
 20
-25.8307670427
 10
301.9407229809
 20
-15.9659740524
 10
299.6249803292
 20
-6.0851046797
 10
297.0075407204
 20
3.8018918777
 10
294.0910396943
 20
13.6850602522
 10
290.8784139204
 20
23.554448931
 10
287.3728982403
 20
33.4001202764
 10
283.5780224112
 20
43.2121605319
 10
279.4976075515
 20
52.9806898047
 10
275.1357622929
 20
62.6958720138
 10
270.496878644
 20
72.3479247943
 10
265.5856275673
 20
81.9271293472
 10
260.4069542764
 20
91.4238402255
 10
254.9660732562
 20
100.8284950464
 10
249.2684630129
 20
110.1316241196
 10
243.3198605569
 20
119.3238599828
 10
237.1262556266
 20
128.3959468336
 10
230.6938846573
 20
137.3387498497
 10
224.0292245012
 20
146.1432643863
 10
217.1389859062
 20
154.8006250438
 10
210.0301067584
 20
163.3021145937
 10
202.7097450967
 20
171.6391727568
 10
195.1852719046
 20
179.8034048221
 10
187.4642636888
 20
187.7865901
 10
179.5544948501
 20
195.5806901997
 10
171.4639298554
 20
203.177857123
 10
163.2007152176
 20
210.5704411669
 10
154.7731712935
 20
217.7509986258
 10
146.1897839056
 20
224.712299287
 10
137.4591957972
 20
231.4473337109
 10
128.5901979305
 20
237.9493202887
 10
119.5917206347
 20
244.2117120711
 10
110.4728246135
 20
250.2282033604
 10
101.2426918223
 20
255.9927360598
 10
91.9106162225
 20
261.4995057736
 10
82.485994423
 20
266.7429676514
 10
72.9783162192
 20
271.7178419716
 10
63.397155037
 20
276.4191194575
 10
53.7521582937
 20
280.8420663212
 10
44.0530376834
 20
284.98222903
 10
34.3095593983
 20
288.8354387911
 10
24.5315342952
 20
292.3978157489
 10
14.7288080165
 20
295.6657728917
 10
4.9112510767
 20
298.6360196638
 10
-4.9112510767
 20
301.3055652783
 10
-14.7288080165
 20
303.6717217292
 10
-24.5315342952
 20
305.7321064974
 10
-34.3095593983
 20
307.4846449502
 10
-44.0530376834
 20
308.9275724299
 10
-53.7521582937
 20
310.0594360308
 10
-63.397155037
 20
310.8790960623
 10
-72.9783162192
 20
311.3857271961
 10
-82.485994423
 20
311.5788192976
 10
-91.9106162225
 20
311.4581779395
 10
-101.2426918223
 20
311.0239245975
 10
-110.4728246135
 20
310.2764965277
 10
-119.5917206347
 20
309.2166463269
 10
-128.5901979305
 20
307.8454411745
 10
-137.4591957972
 20
306.1642617577
 10
-146.1897839056
 20
304.1748008818
 10
-154.7731712935
 20
301.8790617652
 10
-163.2007152176
 20
299.2793560225
 10
-171.4639298554
 20
296.3783013372
 10
-179.5544948501
 20
293.1788188254
 10
-187.4642636888
 20
289.6841300947
 10
-195.1852719046
 20
285.8977540004
 10
-202.7097450967
 20
281.8235031025
 10
-210.0301067584
 20
277.465479826
 10
-217.1389859062
 20
272.8280723311
 10
-224.0292245012
 20
267.915950094
 10
-230.6938846573
 20
262.7340592054
 10
-237.1262556266
 20
257.2876173902
 10
-243.3198605569
 20
251.5821087536
 10
-249.2684630129
 20
245.6232782593
 10
-254.9660732562
 20
239.4171259443
 10
-260.4069542764
 20
232.969900878
 10
-265.5856275673
 20
226.2880948695
 10
-270.496878644
 20
219.3784359311
 10
-275.1357622929
 20
212.2478815037
 10
-279.4976075515
 20
204.903611451
 10
-283.5780224112
 20
197.3530208306
 10
-287.3728982403
 20
189.6037124471
 10
-290.8784139204
 20
181.6634891972
 10
-294.0910396943
 20
173.5403462126
 10
-297.0075407204
 20
165.2424628097
 10
-299.6249803292
 20
156.7781942538
 10
-301.9407229809
 20
148.1560633458
 10
-303.952436919
 20
139.3847518407
 10
-305.658096518
 20
130.4730917056
 10
-307.0559843234
 20
121.4300562269
 10
-308.1446927806
 20
112.2647509748
 10
-308.9231256525
 20
102.9864046347
 10
-309.3904991232
 20
93.6043597149
 10
-309.5463425871
 20
84.1280631394
 10
-309.3904991232
 20
74.5670567355
 10
-308.9231256525
 20
64.9309676263
 10
-308.1446927806
 20
55.2294985366
 10
-307.0559843234
 20
45.4724180236
 10
-305.658096518
 20
35.6695506401
 10
-303.952436919
 20
25.8307670426
 10
-301.9407229809
 20
15.9659740524
 10
-299.6249803292
 20
6.0851046797
 10
-297.0075407204
 20
-3.8018918777
 10
-294.0910396943
 20
-13.6850602522
 10
-290.8784139204
 20
-23.554448931
 10
-287.3728982403
 20
-33.4001202764
 10
-283.5780224112
 20
-43.2121605319
 10
-279.4976075514
 20
-52.9806898047
 10
-275.1357622929
 20
-62.6958720138
 10
-270.496878644
 20
-72.3479247943
 10
-265.5856275673
 20
-81.9271293472
 10
-260.4069542764
 20
-91.4238402255
 10
-254.9660732562
 20
-100.8284950464
 10
-249.2684630129
 20
-110.1316241196
 10
-243.3198605569
 20
-119.3238599828
 10
-237.1262556266
 20
-128.3959468336
 10
-230.6938846573
 20
-137.3387498497
 10
-224.0292245012
 20
-146.1432643863
 10
-217.1389859062
 20
-154.8006250438
 10
-210.0301067584
 20
-163.3021145937
 10
-202.7097450967
 20
-171.6391727568
 10
-195.1852719046
 20
-179.8034048221
 10
-187.4642636888
 20
-187.7865901
 10
-179.5544948501
 20
-195.5806901997
 10
-171.4639298554
 20
-203.177857123
 10
-163.2007152176
 20
-210.5704411669
 10
-154.7731712935
 20
-217.7509986258
 10
-146.1897839056
 20
-224.712299287
 10
-137.4591957972
 20
-231.4473337109
 10
-128.5901979305
 20
-237.9493202887
 10
-119.5917206347
 20
-244.2117120711
 10
-110.4728246135
 20
-250.2282033604
 10
-101.2426918223
 20
-255.9927360598
 10
-91.9106162225
 20
-261.4995057736
 10
-82.485994423
 20
-266.7429676514
 10
-72.9783162192
 20
-271.7178419716
 10
-63.397155037
 20
-276.4191194575
 10
-53.7521582937
 20
-280.8420663212
 10
-44.0530376834
 20
-284.98222903
 10
-34.3095593983
 20
-288.8354387911
 10
-24.5315342952
 20
-292.3978157489
 10
-14.7288080165
 20
-295.6657728917
 10
-4.9112510767
 20
-298.6360196638
 10
4.9112510767
 20
-301.3055652783
 10
14.7288080165
 20
-303.6717217292
 10
24.5315342952
 20
-305.7321064974
 10
34.3095593983
 20
-307.4846449502
 10
44.0530376834
 20
-308.9275724299
 10
53.7521582937
 20
-310.0594360308
 10
63.397155037
 20
-310.8790960622
 10
72.9783162192
 20
-311.3857271961
 10
82.485994423
 20
-311.5788192976
 10
91.9106162225
 20
-311.4581779395
 10
101.2426918223
 20
-311.0239245975
 10
110.4728246135
 20
-310.2764965277
 10
119.5917206347
 20
-309.2166463269
 10
128.5901979305
 20
-307.8454411745
 10
137.4591957972
 20
-306.1642617577
 10
146.1897839056
 20
-304.1748008818
 10
154.7731712936
 20
-301.8790617652
 10
163.2007152176
 20
-299.2793560225
 10
171.4639298554
 20
-296.3783013372
 10
179.5544948501
 20
-293.1788188254
 10
187.4642636888
 20
-289.6841300947
 10
195.1852719046
 20
-285.8977540004
 10
202.7097450967
 20
-281.8235031024
 10
210.0301067584
 20
-277.465479826
 10
217.1389859062
 20
-272.8280723311
 10
224.0292245012
 20
-267.915950094
 10
230.6938846573
 20
-262.7340592054
 10
237.1262556266
 20
-257.2876173902
 10
243.3198605569
 20
-251.5821087536
 10
249.2684630129
 20
-245.6232782593
 10
254.9660732562
 20
-239.4171259443
 10
260.4069542764
 20
-232.969900878
 10
265.5856275673
 20
-226.2880948695
 10
270.496878644
 20
-219.3784359311
 10
275.1357622929
 20
-212.2478815037
 10
279.4976075515
 20
-204.903611451
 10
283.5780224112
 20
-197.3530208306
 10
287.3728982403
 20
-189.6037124471
 10
290.8784139204
 20
-181.6634891972
 10
294.0910396943
 20
-173.5403462126
 10
297.0075407204
 20
-165.2424628097
 10
299.6249803292
 20
-156.7781942538
 10
301.9407229809
 20
-148.1560633458
 10
303.952436919
 20
-139.3847518407
 10
305.658096518
 20
-130.4730917056
 10
307.0559843234
 20
-121.4300562269
 10
308.1446927806
 20
-112.2647509748
 10
308.9231256525
 20
-102.9864046347
 10
309.3904991232
 20
-93.6043597149
 10
309.5463425871
 20
-84.1280631394
  0
LWPOLYLINE
  5
276
330
263
100
AcDbEntity
  8
0
  6
Continuous
 62
     7
370
    25
100
AcDbPolyline
 90
       80
 70
   128
 43
0.0
 10
313.2799056985
 20
-80.4839910849
 10
313.1240622346
 20
-70.9229846811
 10
312.656688764
 20
-61.2868955719
 10
311.8782558921
 20
-51.5854264822
 10
310.7895474349
 20
-41.8283459691
 10
309.3916596295
 20
-32.0254785856
 10
307.6860000304
 20
-22.1866949882
 10
305.6742860923
 20
-12.321901998
 10
303.3585434406
 20
-2.4410326252
 10
300.7411038318
 20
7.4459639321
 10
297.8246028058
 20
17.3291323066
 10
294.6119770318
 20
27.1985209854
 10
291.1064613517
 20
37.0441923308
 10
287.3115855226
 20
46.8562325863
 10
283.2311706629
 20
56.6247618591
 10
278.8693254043
 20
66.3399440682
 10
274.2304417554
 20
75.9919968487
 10
269.3191906787
 20
85.5712014016
 10
264.1405173878
 20
95.0679122799
 10
258.6996363677
 20
104.4725671008
 10
253.0020261243
 20
113.775696174
 10
247.0534236683
 20
122.9679320372
 10
240.8598187381
 20
132.0400188881
 10
234.4274477688
 20
140.9828219041
 10
227.7627876127
 20
149.7873364408
 10
220.8725490176
 20
158.4446970982
 10
213.7636698699
 20
166.9461866481
 10
206.4433082081
 20
175.2832448112
 10
198.918835016
 20
183.4474768765
 10
191.1978268002
 20
191.4306621545
 10
183.2880579616
 20
199.2247622541
 10
175.1974929668
 20
206.8219291775
 10
166.934278329
 20
214.2145132213
 10
158.506734405
 20
221.3950706802
 10
149.923347017
 20
228.3563713415
 10
141.1927589086
 20
235.0914057654
 10
132.3237610419
 20
241.5933923432
 10
123.3252837461
 20
247.8557841256
 10
114.2063877249
 20
253.8722754148
 10
104.9762549338
 20
259.6368081142
 10
95.6441793339
 20
265.143577828
 10
86.2195575344
 20
270.3870397058
 10
76.7118793306
 20
275.3619140261
 10
67.1307181485
 20
280.063191512
 10
57.4857214052
 20
284.4861383756
 10
47.7866007948
 20
288.6263010845
 10
38.0431225097
 20
292.4795108456
 10
28.2650974066
 20
296.0418878034
 10
18.462371128
 20
299.3098449462
 10
8.6448141881
 20
302.2800917182
 10
-1.1776879652
 20
304.9496373327
 10
-10.9952449051
 20
307.3157937836
 10
-20.7979711838
 20
309.3761785518
 10
-30.5759962869
 20
311.1287170046
 10
-40.3194745719
 20
312.5716444843
 10
-50.0185951823
 20
313.7035080852
 10
-59.6635919256
 20
314.5231681167
 10
-69.2447531077
 20
315.0297992505
 10
-78.7524313115
 20
315.222891352
 10
-88.177053111
 20
315.102249994
 10
-97.5091287109
 20
314.6679966519
 10
-106.7392615021
 20
313.9205685821
 10
-115.8581575232
 20
312.8607183814
 10
-124.8566348191
 20
311.4895132289
 10
-133.7256326857
 20
309.8083338121
 10
-142.4562207941
 20
307.8188729362
 10
-151.0396081821
 20
305.5231338196
 10
-159.4671521062
 20
302.923428077
 10
-167.7303667439
 20
300.0223733917
 10
-175.8209317387
 20
296.8228908798
 10
-183.7307005773
 20
293.3282021491
 10
-191.4517087931
 20
289.5418260549
 10
-198.9761819852
 20
285.4675751569
 10
-206.296543647
 20
281.1095518804
 10
-213.4054227947
 20
276.4721443855
 10
-220.2956613898
 20
271.5600221484
 10
-226.9603215459
 20
266.3781312598
 10
-233.3926925152
 20
260.9316894446
 10
-239.5862974455
 20
255.2261808081
 10
-240.7337924163
 20
254.1150525717
  0
LWPOLYLINE
  5
277
330
263
100
AcDbEntity
  8
0
  6
Continuous
 62
     7
370
    25
100
AcDbPolyline
 90
       22
 70
   128
 43
0.0
 10
248.2009186392
 20
-246.8269084628
 10
253.0020261243
 20
-241.9792062048
 10
258.6996363677
 20
-235.7730538898
 10
264.1405173878
 20
-229.3258288235
 10
269.3191906787
 20
-222.6440228151
 10
274.2304417554
 20
-215.7343638767
 10
278.8693254043
 20
-208.6038094492
 10
283.2311706629
 20
-201.2595393966
 10
287.3115855226
 20
-193.7089487762
 10
291.1064613517
 20
-185.9596403926
 10
294.6119770318
 20
-178.0194171427
 10
297.8246028058
 20
-169.8962741581
 10
300.7411038318
 20
-161.5983907553
 10
303.3585434406
 20
-153.1341221994
 10
305.6742860923
 20
-144.5119912914
 10
307.6860000304
 20
-135.7406797863
 10
309.3916596295
 20
-126.8290196512
 10
310.7895474349
 20
-117.7859841725
 10
311.8782558921
 20
-108.6206789203
 10
312.656688764
 20
-99.3423325802
 10
313.1240622346
 20
-89.9602876604
 10
313.2799056985
 20
-80.4839910849
  0
LWPOLYLINE
  5
278
330
263
100
AcDbEntity
  8
0
  6
Continuous
 62
     7
370
    25
100
AcDbPolyline
 90
       23
 70
   128
 43
0.0
 10
-63.0263909377
 20
-238.328917275
 10
-57.9063456578
 20
-242.9081727843
 10
-52.6150915032
 20
-247.2595216509
 10
-47.1682728676
 20
-251.3700984532
 10
-41.5819940946
 20
-255.2277496488
 10
-35.8727718629
 20
-258.8210695083
 10
-30.057486352
 20
-262.1394338374
 10
-24.1533313336
 20
-265.17303139
 10
-18.1777633357
 20
-267.9128928756
 10
-12.1484500295
 20
-270.3509174793
 10
-6.0832179921
 20
-272.4798968122
 10
0.0
 20
-274.2935362247
 10
6.0832179921
 20
-275.7864734174
 10
12.1484500295
 20
-276.9542942957
 10
18.1777633357
 20
-277.7935460202
 10
24.1533313336
 20
-278.3017472163
 10
30.057486352
 20
-278.4773953103
 10
35.8727718629
 20
-278.3199709719
 10
41.5819940946
 20
-277.82993965
 10
47.1682728676
 20
-277.0087501964
 10
52.6150915032
 20
-275.8588305819
 10
57.9063456578
 20
-274.3835807181
 10
63.0263909377
 20
-272.5873624043
  0
LWPOLYLINE
  5
279
330
263
100
AcDbEntity
  8
0
  6
Continuous
 62
     7
370
    25
100
AcDbPolyline
 90
       24
 70
   128
 43
0.0
 10
63.0263909377
 20
-272.5873624043
 10
64.923930345
 20
-271.656522362
 10
66.6005619441
 20
-270.4286972698
 10
68.0250532608
 20
-268.9267591861
 10
69.1708687169
 20
-267.1786863756
 10
70.0166639386
 20
-265.2170421273
 10
70.5466833611
 20
-263.078368162
 10
70.7510537255
 20
-260.8025039291
 10
70.6259679985
 20
-258.4318444731
 10
70.1737562906
 20
-256.0105506944
 10
69.4028424502
 20
-253.5837267146
 10
68.3275871436
 20
-251.1965796729
 10
66.9680203427
 20
-248.8935776019
 10
65.3494682046
 20
-246.7176210728
 10
63.5020812932
 20
-244.7092440387
 10
61.4602729312
 20
-242.9058587637
 10
59.2620781453
 20
-241.3410589033
 10
56.9484451451
 20
-240.0439937183
 10
54.5624725358
 20
-239.0388250788
 10
52.1486064728
 20
-238.3442773749
 10
49.7518127135
 20
-237.973288716
 10
47.4167389908
 20
-237.932769919
 10
45.1868833101
 20
-238.2234757723
 10
43.1037836636
 20
-238.8399909761
  0
LWPOLYLINE
  5
27A
330
263
100
AcDbEntity
  8
0
  6
Continuous
 62
     7
370
    25
100
AcDbPolyline
 90
       19
 70
   128
 43
0.0
 10
43.1037836636
 20
-238.8399909761
 10
38.8077755398
 20
-240.3117163466
 10
34.3403849618
 20
-241.4544964595
 10
29.7213407689
 20
-242.2632845822
 10
24.9710415311
 20
-242.734508954
 10
20.1104654655
 20
-242.8660885592
 10
15.1610777925
 20
-242.6574423174
 10
10.1447359412
 20
-242.1094916497
 10
5.0835930233
 20
-241.2246564097
 10
0.0
 20
-240.0068441966
 10
-5.0835930233
 20
-238.4614330987
 10
-10.1447359412
 20
-236.5952479429
 10
-15.1610777925
 20
-234.4165301546
 10
-20.1104654655
 20
-231.9349013625
 10
-24.9710415311
 20
-229.1613209071
 10
-29.7213407689
 20
-226.1080374428
 10
-34.3403849618
 20
-222.7885348451
 10
-38.8077755398
 20
-219.2174726632
 10
-43.1037836636
 20
-215.4106213813
  0
LWPOLYLINE
  5
27B
330
263
100
AcDbEntity
  8
0
  6
Continuous
 62
     7
370
    25
100
AcDbPolyline
 90
       24
 70
   128
 43
0.0
 10
-43.1037836636
 20
-215.4106213813
 10
-45.1868833101
 20
-213.6618224805
 10
-47.4167389908
 20
-212.1590626392
 10
-49.7518127135
 20
-210.9303354297
 10
-52.1486064728
 20
-209.9985297152
 10
-54.5624725358
 20
-209.3810032731
 10
-56.9484451451
 20
-209.0892594525
 10
-59.2620781453
 20
-209.128732889
 10
-61.4602729312
 20
-209.4986882669
 10
-63.5020812932
 20
-210.1922340177
 10
-65.3494682046
 20
-211.1964506962
 10
-66.9680203427
 20
-212.4926316458
 10
-68.3275871436
 20
-214.0566314678
 10
-69.4028424502
 20
-215.8593158047
 10
-70.1737562906
 20
-217.8671040582
 10
-70.6259679985
 20
-220.042594932
 10
-70.7510537255
 20
-222.3452631473
 10
-70.5466833611
 20
-224.732214352
 10
-70.0166639386
 20
-227.1589841616
 10
-69.1708687169
 20
-229.580366446
 10
-68.0250532608
 20
-231.9512554347
 10
-66.6005619441
 20
-234.2274859518
 10
-64.923930345
 20
-236.3666561296
 10
-63.0263909377
 20
-238.328917275
  0
LWPOLYLINE
  5
27C
330
263
100
AcDbEntity
  8
0
  6
Continuous
 62
     7
370
    25
100
AcDbPolyline
 90
       19
 70
   128
 43
0.0
 10
-43.1037836636
 20
238.8399909761
 10
-38.8077755398
 20
240.3117163466
 10
-34.3403849618
 20
241.4544964595
 10
-29.7213407689
 20
242.2632845822
 10
-24.9710415311
 20
242.734508954
 10
-20.1104654655
 20
242.8660885592
 10
-15.1610777925
 20
242.6574423174
 10
-10.1447359412
 20
242.1094916497
 10
-5.0835930233
 20
241.2246564097
 10
0.0
 20
240.0068441966
 10
5.0835930233
 20
238.4614330987
 10
10.1447359412
 20
236.5952479429
 10
15.1610777925
 20
234.4165301546
 10
20.1104654655
 20
231.9349013625
 10
24.9710415311
 20
229.1613209071
 10
29.7213407689
 20
226.1080374428
 10
34.3403849618
 20
222.7885348451
 10
38.8077755398
 20
219.2174726632
 10
43.1037836636
 20
215.4106213813
  0
LWPOLYLINE
  5
27D
330
263
100
AcDbEntity
  8
0
  6
Continuous
 62
     7
370
    25
100
AcDbPolyline
 90
       24
 70
   128
 43
0.0
 10
43.1037836636
 20
215.4106213813
 10
45.1868833101
 20
213.6618224805
 10
47.4167389908
 20
212.1590626392
 10
49.7518127135
 20
210.9303354297
 10
52.1486064728
 20
209.9985297152
 10
54.5624725358
 20
209.3810032731
 10
56.9484451451
 20
209.0892594525
 10
59.2620781453
 20
209.128732889
 10
61.4602729312
 20
209.4986882669
 10
63.5020812932
 20
210.1922340177
 10
65.3494682046
 20
211.1964506962
 10
66.9680203427
 20
212.4926316458
 10
68.3275871436
 20
214.0566314678
 10
69.4028424502
 20
215.8593158047
 10
70.1737562906
 20
217.8671040582
 10
70.6259679985
 20
220.042594932
 10
70.7510537255
 20
222.3452631473
 10
70.5466833611
 20
224.732214352
 10
70.0166639386
 20
227.1589841616
 10
69.1708687169
 20
229.580366446
 10
68.0250532608
 20
231.9512554347
 10
66.6005619441
 20
234.2274859518
 10
64.923930345
 20
236.3666561296
 10
63.0263909377
 20
238.328917275
  0
LWPOLYLINE
  5
27E
330
263
100
AcDbEntity
  8
0
  6
Continuous
 62
     7
370
    25
100
AcDbPolyline
 90
       23
 70
   128
 43
0.0
 10
63.0263909377
 20
238.328917275
 10
57.9063456578
 20
242.9081727843
 10
52.6150915032
 20
247.2595216509
 10
47.1682728676
 20
251.3700984532
 10
41.5819940946
 20
255.2277496488
 10
35.8727718629
 20
258.8210695083
 10
30.057486352
 20
262.1394338374
 10
24.1533313336
 20
265.17303139
 10
18.1777633357
 20
267.9128928756
 10
12.1484500295
 20
270.3509174793
 10
6.0832179921
 20
272.4798968122
 10
0.0
 20
274.2935362247
 10
-6.0832179921
 20
275.7864734174
 10
-12.1484500295
 20
276.9542942957
 10
-18.1777633357
 20
277.7935460202
 10
-24.1533313336
 20
278.3017472163
 10
-30.057486352
 20
278.4773953103
 10
-35.8727718629
 20
278.3199709719
 10
-41.5819940946
 20
277.82993965
 10
-47.1682728676
 20
277.0087501964
 10
-52.6150915032
 20
275.8588305819
 10
-57.9063456578
 20
274.3835807181
 10
-63.0263909377
 20
272.5873624043
  0
LWPOLYLINE
  5
27F
330
263
100
AcDbEntity
  8
0
  6
Continuous
 62
     7
370
    25
100
AcDbPolyline
 90
       24
 70
   128
 43
0.0
 10
-63.0263909377
 20
272.5873624043
 10
-64.923930345
 20
271.656522362
 10
-66.6005619441
 20
270.4286972698
 10
-68.0250532608
 20
268.9267591861
 10
-69.1708687169
 20
267.1786863756
 10
-70.0166639386
 20
265.2170421273
 10
-70.5466833611
 20
263.078368162
 10
-70.7510537255
 20
260.8025039291
 10
-70.6259679985
 20
258.4318444731
 10
-70.1737562906
 20
256.0105506944
 10
-69.4028424502
 20
253.5837267146
 10
-68.3275871436
 20
251.1965796729
 10
-66.9680203427
 20
248.8935776019
 10
-65.3494682046
 20
246.7176210728
 10
-63.5020812932
 20
244.7092440387
 10
-61.4602729312
 20
242.9058587637
 10
-59.2620781453
 20
241.3410589033
 10
-56.9484451451
 20
240.0439937183
 10
-54.5624725358
 20
239.0388250788
 10
-52.1486064728
 20
238.3442773749
 10
-49.7518127135
 20
237.973288716
 10
-47.4167389908
 20
237.932769919
 10
-45.1868833101
 20
238.2234757723
 10
-43.1037836636
 20
238.8399909761
  0
LWPOLYLINE
  5
281
330
263
100
AcDbEntity
  8
0
  6
Continuous
 62
     7
370
    25
100
AcDbPolyline
 90
       28
 70
   128
 43
0.0
 10
-40.6631657558
 20
-61.0683741222
 10
-38.8167056858
 20
-59.5600220568
 10
-37.2235175726
 20
-57.7886722111
 10
-35.9051465524
 20
-55.7782790528
 10
-34.8794213314
 20
-53.5560297008
 10
-34.1602130839
 20
-51.1519762653
 10
-33.7572478674
 20
-48.5986294448
 10
-33.6759750953
 20
-45.9305188749
 10
-33.9174938423
 20
-43.1837261739
 10
-34.4785379819
 20
-40.395397001
 10
-35.3515203544
 20
-37.6032387251
 10
-36.5246353708
 20
-34.8450104967
 10
-37.982018663
 20
-32.1580126212
 10
-39.7039616221
 20
-29.5785821351
 10
-41.6671779235
 20
-27.1416014109
 10
-43.8451184347
 20
-24.8800264322
 10
-46.2083302463
 20
-22.824441121
 10
-48.7248549728
 20
-21.0026437422
 10
-51.3606609343
 20
-19.4392709802
 10
-54.0801033768
 20
-18.1554647696
 10
-56.8464065064
 20
-17.168586387
 10
-59.6221608189
 20
-16.4919816696
 10
-62.3698289989
 20
-16.1348005356
 10
-65.0522535479
 20
-16.1018732469
 10
-67.6331592755
 20
-16.3936450887
 10
-70.0776438593
 20
-17.0061703474
 10
-72.3526498388
 20
-17.9311656696
 10
-74.4274116607
 20
-19.1561220804
  0
LWPOLYLINE
  5
283
330
263
100
AcDbEntity
  8
0
  6
Continuous
 62
     7
370
    25
100
AcDbPolyline
 90
       28
 70
   128
 43
0.0
 10
-153.2394375003
 20
-74.0924618713
 10
-155.0858975703
 20
-75.6008139367
 10
-156.6790856835
 20
-77.3721637824
 10
-157.9974567037
 20
-79.3825569407
 10
-159.0231819247
 20
-81.6048062927
 10
-159.7423901722
 20
-84.0088597282
 10
-160.1453553887
 20
-86.5622065487
 10
-160.2266281608
 20
-89.2303171186
 10
-159.9851094138
 20
-91.9771098196
 10
-159.4240652742
 20
-94.7654389925
 10
-158.5510829017
 20
-97.5575972684
 10
-157.3779678853
 20
-100.3158254967
 10
-155.9205845931
 20
-103.0028233723
 10
-154.198641634
 20
-105.5822538584
 10
-152.2354253326
 20
-108.0192345826
 10
-150.0574848214
 20
-110.2808095613
 10
-147.6942730098
 20
-112.3363948725
 10
-145.1777482833
 20
-114.1581922513
 10
-142.5419423218
 20
-115.7215650133
 10
-139.8224998793
 20
-117.0053712239
 10
-137.0561967497
 20
-117.9922496065
 10
-134.2804424372
 20
-118.6688543239
 10
-131.5327742572
 20
-119.0260354579
 10
-128.8503497082
 20
-119.0589627466
 10
-126.2694439806
 20
-118.7671909048
 10
-123.8249593968
 20
-118.1546656461
 10
-121.5499534173
 20
-117.2296703239
 10
-119.4751915954
 20
-116.0047139131
  0
LWPOLYLINE
  5
285
330
263
100
AcDbEntity
  8
0
  6
Continuous
 62
     7
370
    25
100
AcDbPolyline
 90
       28
 70
   128
 43
0.0
 10
74.4125620522
 20
-59.6339862217
 10
72.3384746182
 20
-57.2807270282
 10
70.0640504912
 20
-55.1184887182
 10
67.6200473556
 20
-53.1765118557
 10
65.0395161612
 20
-51.4810583463
 10
62.3573541657
 20
-50.0550562902
 10
59.6098330087
 20
-48.9177899189
 10
56.8341082006
 20
-48.0846388091
 10
54.0677166577
 20
-47.5668699004
 10
51.3480690799
 20
-47.3714851289
 10
48.7119440352
 20
-47.5011267386
 10
46.1949905926
 20
-47.954041549
 10
43.8312462297
 20
-48.7241046644
 10
41.6526765339
 20
-49.8009023021
 10
39.6887429231
 20
-51.1698726212
 10
37.9660042303
 20
-52.8125026468
 10
36.5077575409
 20
-54.7065786256
 10
35.33372314
 20
-56.8264864292
 10
34.4597778286
 20
-59.1435579412
 10
33.8977402178
 20
-61.6264587444
 10
33.6552109023
 20
-64.2416118648
 10
33.735469675
 20
-66.9536518427
 10
34.1374311735
 20
-69.7259029898
 10
34.8556595583
 20
-72.5208753651
 10
35.8804420224
 20
-75.3007717619
 10
37.1979201412
 20
-78.0279988505
 10
38.7902772831
 20
-80.6656755628
 10
40.6359795495
 20
-83.1781318464
  0
LWPOLYLINE
  5
287
330
263
100
AcDbEntity
  8
0
  6
Continuous
 62
     7
370
    25
100
AcDbPolyline
 90
       28
 70
   128
 43
0.0
 10
119.4192199941
 20
-180.9733866104
 10
121.4933074281
 20
-183.3266458039
 10
123.7677315551
 20
-185.4888841139
 10
126.2117346907
 20
-187.4308609763
 10
128.7922658851
 20
-189.1263144857
 10
131.4744278806
 20
-190.5523165419
 10
134.2219490376
 20
-191.6895829132
 10
136.9976738457
 20
-192.5227340229
 10
139.7640653886
 20
-193.0405029317
 10
142.4837129664
 20
-193.2358877032
 10
145.1198380111
 20
-193.1062460935
 10
147.6367914536
 20
-192.6533312831
 10
150.0005358166
 20
-191.8832681677
 10
152.1791055124
 20
-190.80647053
 10
154.1430391232
 20
-189.4375002108
 10
155.865777816
 20
-187.7948701853
 10
157.3240245053
 20
-185.9007942065
 10
158.4980589063
 20
-183.7808864029
 10
159.3720042177
 20
-181.4638148908
 10
159.9340418284
 20
-178.9809140876
 10
160.176571144
 20
-176.3657609672
 10
160.0963123713
 20
-173.6537209894
 10
159.6943508728
 20
-170.8814698423
 10
158.976122488
 20
-168.086497467
 10
157.9513400238
 20
-165.3066010701
 10
156.6338619051
 20
-162.5793739816
 10
155.0415047632
 20
-159.9416972692
 10
153.1958024968
 20
-157.4292409857
  0
LWPOLYLINE
  5
289
330
263
100
AcDbEntity
  8
0
  6
Continuous
 62
     7
370
    25
100
AcDbPolyline
 90
       28
 70
   128
 43
0.0
 10
40.6631657558
 20
61.0683741222
 10
38.8167056858
 20
59.5600220568
 10
37.2235175726
 20
57.7886722111
 10
35.9051465524
 20
55.7782790528
 10
34.8794213314
 20
53.5560297008
 10
34.1602130839
 20
51.1519762653
 10
33.7572478674
 20
48.5986294448
 10
33.6759750953
 20
45.9305188749
 10
33.9174938423
 20
43.1837261739
 10
34.4785379819
 20
40.395397001
 10
35.3515203544
 20
37.6032387251
 10
36.5246353708
 20
34.8450104967
 10
37.982018663
 20
32.1580126212
 10
39.7039616221
 20
29.5785821351
 10
41.6671779235
 20
27.1416014109
 10
43.8451184347
 20
24.8800264322
 10
46.2083302463
 20
22.824441121
 10
48.7248549728
 20
21.0026437422
 10
51.3606609343
 20
19.4392709802
 10
54.0801033768
 20
18.1554647696
 10
56.8464065064
 20
17.168586387
 10
59.6221608189
 20
16.4919816696
 10
62.3698289989
 20
16.1348005356
 10
65.0522535479
 20
16.1018732469
 10
67.6331592755
 20
16.3936450887
 10
70.0776438593
 20
17.0061703474
 10
72.3526498388
 20
17.9311656696
 10
74.4274116607
 20
19.1561220804
  0
LWPOLYLINE
  5
28B
330
263
100
AcDbEntity
  8
0
  6
Continuous
 62
     7
370
    25
100
AcDbPolyline
 90
       28
 70
   128
 43
0.0
 10
153.2394375003
 20
74.0924618713
 10
155.0858975703
 20
75.6008139367
 10
156.6790856835
 20
77.3721637824
 10
157.9974567037
 20
79.3825569407
 10
159.0231819247
 20
81.6048062927
 10
159.7423901722
 20
84.0088597282
 10
160.1453553887
 20
86.5622065487
 10
160.2266281608
 20
89.2303171186
 10
159.9851094138
 20
91.9771098196
 10
159.4240652742
 20
94.7654389925
 10
158.5510829017
 20
97.5575972684
 10
157.3779678853
 20
100.3158254967
 10
155.9205845931
 20
103.0028233723
 10
154.198641634
 20
105.5822538584
 10
152.2354253326
 20
108.0192345826
 10
150.0574848214
 20
110.2808095613
 10
147.6942730098
 20
112.3363948725
 10
145.1777482833
 20
114.1581922513
 10
142.5419423218
 20
115.7215650133
 10
139.8224998793
 20
117.0053712239
 10
137.0561967497
 20
117.9922496065
 10
134.2804424372
 20
118.6688543239
 10
131.5327742572
 20
119.0260354579
 10
128.8503497082
 20
119.0589627466
 10
126.2694439806
 20
118.7671909048
 10
123.8249593968
 20
118.1546656461
 10
121.5499534173
 20
117.2296703239
 10
119.4751915954
 20
116.0047139131
  0
LWPOLYLINE
  5
28D
330
263
100
AcDbEntity
  8
0
  6
Continuous
 62
     7
370
    25
100
AcDbPolyline
 90
       28
 70
   128
 43
0.0
 10
-74.4125620522
 20
59.6339862217
 10
-72.3384746182
 20
57.2807270282
 10
-70.0640504912
 20
55.1184887182
 10
-67.6200473556
 20
53.1765118557
 10
-65.0395161612
 20
51.4810583463
 10
-62.3573541657
 20
50.0550562902
 10
-59.6098330087
 20
48.9177899189
 10
-56.8341082006
 20
48.0846388091
 10
-54.0677166577
 20
47.5668699004
 10
-51.3480690799
 20
47.3714851289
 10
-48.7119440352
 20
47.5011267386
 10
-46.1949905926
 20
47.954041549
 10
-43.8312462297
 20
48.7241046644
 10
-41.6526765339
 20
49.8009023021
 10
-39.6887429231
 20
51.1698726212
 10
-37.9660042303
 20
52.8125026468
 10
-36.5077575409
 20
54.7065786256
 10
-35.33372314
 20
56.8264864292
 10
-34.4597778286
 20
59.1435579412
 10
-33.8977402178
 20
61.6264587444
 10
-33.6552109023
 20
64.2416118648
 10
-33.735469675
 20
66.9536518427
 10
-34.1374311735
 20
69.7259029898
 10
-34.8556595583
 20
72.5208753651
 10
-35.8804420224
 20
75.3007717619
 10
-37.1979201412
 20
78.0279988505
 10
-38.7902772831
 20
80.6656755628
 10
-40.6359795495
 20
83.1781318464
  0
LWPOLYLINE
  5
28F
330
263
100
AcDbEntity
  8
0
  6
Continuous
 62
     7
370
    25
100
AcDbPolyline
 90
       28
 70
   128
 43
0.0
 10
-119.4192199941
 20
180.9733866104
 10
-121.4933074281
 20
183.3266458039
 10
-123.7677315551
 20
185.4888841139
 10
-126.2117346907
 20
187.4308609763
 10
-128.7922658851
 20
189.1263144857
 10
-131.4744278806
 20
190.5523165419
 10
-134.2219490376
 20
191.6895829132
 10
-136.9976738457
 20
192.5227340229
 10
-139.7640653886
 20
193.0405029317
 10
-142.4837129664
 20
193.2358877032
 10
-145.1198380111
 20
193.1062460935
 10
-147.6367914536
 20
192.6533312831
 10
-150.0005358166
 20
191.8832681677
 10
-152.1791055124
 20
190.80647053
 10
-154.1430391232
 20
189.4375002108
 10
-155.865777816
 20
187.7948701853
 10
-157.3240245053
 20
185.9007942065
 10
-158.4980589063
 20
183.7808864029
 10
-159.3720042177
 20
181.4638148908
 10
-159.9340418284
 20
178.9809140876
 10
-160.176571144
 20
176.3657609672
 10
-160.0963123713
 20
173.6537209894
 10
-159.6943508728
 20
170.8814698423
 10
-158.976122488
 20
168.086497467
 10
-157.9513400238
 20
165.3066010701
 10
-156.6338619051
 20
162.5793739816
 10
-155.0415047632
 20
159.9416972692
 10
-153.1958024968
 20
157.4292409857
  0
LWPOLYLINE
  5
290
330
263
100
AcDbEntity
  8
0
  6
Continuous
 62
     7
370
    25
100
AcDbPolyline
 90
       28
 70
   128
 43
0.0
 10
5.7487177909
 20
-125.8516369173
 10
5.5937603588
 20
-124.5246263153
 10
5.137241858
 20
-123.184926979
 10
4.4037733188
 20
-121.9047624463
 10
3.4328962201
 20
-120.7531467186
 10
2.2769507976
 20
-119.7921636978
 10
0.9982543683
 20
-119.0736202273
 10
-0.3342582124
 20
-118.6362531716
 10
-1.6487508464
 20
-118.5036411018
 10
-2.8743588955
 20
-118.682933169
 10
-3.9450095125
 20
-119.1644636915
 10
-4.8029836456
 20
-119.9222732341
 10
-5.4020276871
 20
-120.9155080882
 10
-5.7098470178
 20
-122.0906227057
 10
-5.7098470178
 20
-123.3842663535
 10
-5.4020276871
 20
-124.7266983677
 10
-4.8029836456
 20
-126.0455478908
 10
-3.9450095125
 20
-127.2697154038
 10
-2.8743588955
 20
-128.3332057192
 10
-1.6487508464
 20
-129.1786857986
 10
-0.3342582124
 20
-129.7605755924
 10
0.9982543683
 20
-130.047505271
 10
2.2769507976
 20
-130.0240063811
 10
3.4328962201
 20
-129.6913457541
 10
4.4037733188
 20
-129.0674572105
 10
5.137241858
 20
-128.1859747431
 10
5.5937603588
 20
-127.0944192998
 10
5.7487177909
 20
-125.8516369173
  0
LWPOLYLINE
  5
291
330
263
100
AcDbEntity
  8
0
  6
Continuous
 62
     7
370
    25
100
AcDbPolyline
 90
       28
 70
   128
 43
0.0
 10
-122.4919098523
 20
33.2906764137
 10
-122.6468672844
 20
34.6176870157
 10
-123.1033857853
 20
35.957386352
 10
-123.8368543245
 20
37.2375508847
 10
-124.8077314231
 20
38.3891666124
 10
-125.9636768456
 20
39.3501496332
 10
-127.2423732749
 20
40.0686931037
 10
-128.5748858556
 20
40.5060601594
 10
-129.8893784896
 20
40.6386722292
 10
-131.1149865387
 20
40.459380162
 10
-132.1856371557
 20
39.9778496395
 10
-133.0436112888
 20
39.2200400969
 10
-133.6426553303
 20
38.2268052428
 10
-133.950474661
 20
37.0516906253
 10
-133.950474661
 20
35.7580469775
 10
-133.6426553303
 20
34.4156149633
 10
-133.0436112888
 20
33.0967654402
 10
-132.1856371557
 20
31.8725979272
 10
-131.1149865387
 20
30.8091076118
 10
-129.8893784896
 20
29.9636275323
 10
-128.5748858556
 20
29.3817377386
 10
-127.2423732749
 20
29.09480806
 10
-125.9636768456
 20
29.1183069499
 10
-124.8077314231
 20
29.4509675768
 10
-123.8368543245
 20
30.0748561205
 10
-123.1033857853
 20
30.9563385879
 10
-122.6468672844
 20
32.0478940312
 10
-122.4919098523
 20
33.2906764137
  0
LWPOLYLINE
  5
292
330
263
100
AcDbEntity
  8
0
  6
Continuous
 62
     7
370
    25
100
AcDbPolyline
 90
       28
 70
   128
 43
0.0
 10
5.7487177909
 20
122.7268802864
 10
5.5937603589
 20
124.0538908883
 10
5.137241858
 20
125.3935902246
 10
4.4037733188
 20
126.6737547573
 10
3.4328962201
 20
127.825370485
 10
2.2769507976
 20
128.7863535058
 10
0.9982543683
 20
129.5048969764
 10
-0.3342582124
 20
129.9422640321
 10
-1.6487508464
 20
130.0748761018
 10
-2.8743588954
 20
129.8955840346
 10
-3.9450095125
 20
129.4140535121
 10
-4.8029836456
 20
128.6562439696
 10
-5.4020276871
 20
127.6630091155
 10
-5.7098470178
 20
126.4878944979
 10
-5.7098470178
 20
125.1942508501
 10
-5.4020276871
 20
123.851818836
 10
-4.8029836456
 20
122.5329693128
 10
-3.9450095125
 20
121.3088017998
 10
-2.8743588954
 20
120.2453114845
 10
-1.6487508464
 20
119.399831405
 10
-0.3342582124
 20
118.8179416112
 10
0.9982543683
 20
118.5310119327
 10
2.2769507976
 20
118.5545108225
 10
3.4328962201
 20
118.8871714495
 10
4.4037733188
 20
119.5110599931
 10
5.137241858
 20
120.3925424606
 10
5.5937603589
 20
121.4840979038
 10
5.7487177909
 20
122.7268802864
  0
LWPOLYLINE
  5
293
330
263
100
AcDbEntity
  8
0
  6
Continuous
 62
     7
370
    25
100
AcDbPolyline
 90
       28
 70
   128
 43
0.0
 10
133.9893454341
 20
-36.4154330446
 10
133.8343880021
 20
-35.0884224427
 10
133.3778695012
 20
-33.7487231064
 10
132.644400962
 20
-32.4685585737
 10
131.6735238633
 20
-31.316942846
 10
130.5175784409
 20
-30.3559598251
 10
129.2388820115
 20
-29.6374163546
 10
127.9063694308
 20
-29.2000492989
 10
126.5918767969
 20
-29.0674372292
 10
125.3662687478
 20
-29.2467292964
 10
124.2956181308
 20
-29.7282598188
 10
123.4376439977
 20
-30.4860693614
 10
122.8385999561
 20
-31.4793042155
 10
122.5307806255
 20
-32.6544188331
 10
122.5307806255
 20
-33.9480624809
 10
122.8385999561
 20
-35.290494495
 10
123.4376439977
 20
-36.6093440182
 10
124.2956181308
 20
-37.8335115312
 10
125.3662687478
 20
-38.8970018465
 10
126.5918767969
 20
-39.742481926
 10
127.9063694308
 20
-40.3243717197
 10
129.2388820115
 20
-40.6113013983
 10
130.5175784409
 20
-40.5878025085
 10
131.6735238633
 20
-40.2551418815
 10
132.644400962
 20
-39.6312533378
 10
133.3778695012
 20
-38.7497708704
 10
133.8343880021
 20
-37.6582154272
 10
133.9893454341
 20
-36.4154330446
  0
LWPOLYLINE
  5
294
330
263
100
AcDbEntity
  8
0
  6
Continuous
 62
     7
370
    25
100
AcDbPolyline
 90
       42
 70
   128
 43
0.0
 10
13.2662718252
 20
-3.6054884203
 10
13.1107967414
 20
-1.6005440003
 10
12.6480156941
 20
0.4419158145
 10
11.888775879
 20
2.4740174971
 10
10.8508732337
 20
4.4481303065
 10
9.5586353166
 20
6.3179827116
 10
8.0423510892
 20
8.0397469567
 10
6.3375609687
 20
9.5730663474
 10
4.4842237905
 20
10.8820011767
 10
2.5257802073
 20
11.9358711215
 10
0.5081344768
 20
12.7099743636
 10
-1.5214214952
 20
13.1861665791
 10
-3.5153166368
 20
13.3532862261
 10
-5.4268157359
 20
13.2074161617
 10
-7.2111148737
 20
12.7519754565
 10
-8.8263915907
 20
11.9976392546
 10
-10.2347851697
 20
10.9620885574
 10
-11.4032840589
 20
9.6695957954
 10
-12.3044996348
 20
8.1504559036
 10
-12.9173081681
 20
6.4402762334
 10
-13.2273459461
 20
4.5791419468
 10
-13.2273459461
 20
2.610676454
 10
-12.9173081681
 20
0.5810189179
 10
-12.3044996348
 20
-1.4622572092
 10
-11.4032840589
 20
-3.4712592667
 10
-10.2347851697
 20
-5.398897949
 10
-8.8263915907
 20
-7.1999910393
 10
-7.2111148737
 20
-8.8323224421
 10
-5.4268157359
 20
-10.2576316928
 10
-3.5153166368
 20
-11.4425107506
 10
-1.5214214952
 20
-12.3591870546
 10
0.5081344768
 20
-12.9861744892
 10
2.5257802073
 20
-13.3087770003
 10
4.4842237905
 20
-13.3194330586
 10
6.3375609687
 20
-13.017892895
 10
8.0423510892
 20
-12.4112243554
 10
9.5586353166
 20
-11.5136472361
 10
10.8508732337
 20
-10.3461999842
 10
11.888775879
 20
-8.9362465736
 10
12.6480156941
 20
-7.3168351174
 10
13.1107967414
 20
-5.5259232475
 10
13.2662718252
 20
-3.6054884203
  0
LWPOLYLINE
  5
295
330
263
100
AcDbEntity
  8
0
  6
Continuous
 62
     7
370
    25
100
AcDbPolyline
 90
       42
 70
   128
 43
0.0
 10
13.2662718252
 20
-104.7512299031
 10
13.1107967414
 20
-102.7462854831
 10
12.6480156941
 20
-100.7038256684
 10
11.888775879
 20
-98.6717239857
 10
10.8508732337
 20
-96.6976111763
 10
9.5586353166
 20
-94.8277587713
 10
8.0423510892
 20
-93.1059945261
 10
6.3375609687
 20
-91.5726751354
 10
4.4842237905
 20
-90.2637403062
 10
2.5257802073
 20
-89.2098703613
 10
0.5081344768
 20
-88.4357671192
 10
-1.5214214952
 20
-87.9595749037
 10
-3.5153166368
 20
-87.7924552567
 10
-5.4268157359
 20
-87.9383253212
 10
-7.2111148737
 20
-88.3937660264
 10
-8.8263915907
 20
-89.1481022282
 10
-10.2347851697
 20
-90.1836529254
 10
-11.4032840589
 20
-91.4761456874
 10
-12.3044996348
 20
-92.9952855792
 10
-12.9173081681
 20
-94.7054652495
 10
-13.2273459461
 20
-96.5665995361
 10
-13.2273459461
 20
-98.5350650288
 10
-12.9173081681
 20
-100.5647225649
 10
-12.3044996348
 20
-102.607998692
 10
-11.4032840589
 20
-104.6170007495
 10
-10.2347851697
 20
-106.5446394319
 10
-8.8263915907
 20
-108.3457325222
 10
-7.2111148737
 20
-109.978063925
 10
-5.4268157359
 20
-111.4033731757
 10
-3.5153166368
 20
-112.5882522335
 10
-1.5214214952
 20
-113.5049285374
 10
0.5081344768
 20
-114.131915972
 10
2.5257802073
 20
-114.4545184832
 10
4.4842237905
 20
-114.4651745414
 10
6.3375609687
 20
-114.1636343778
 10
8.0423510892
 20
-113.5569658382
 10
9.5586353166
 20
-112.659388719
 10
10.8508732337
 20
-111.491941467
 10
11.888775879
 20
-110.0819880565
 10
12.6480156941
 20
-108.4625766003
 10
13.1107967414
 20
-106.6716647304
 10
13.2662718252
 20
-104.7512299031
  0
LWPOLYLINE
  5
296
330
263
100
AcDbEntity
  8
0
  6
Continuous
 62
     7
370
    25
100
AcDbPolyline
 90
       42
 70
   128
 43
0.0
 10
13.2662718252
 20
184.9713177342
 10
13.1107967414
 20
186.9762621542
 10
12.6480156941
 20
189.018721969
 10
11.888775879
 20
191.0508236516
 10
10.8508732337
 20
193.024936461
 10
9.5586353166
 20
194.894788866
 10
8.0423510892
 20
196.6165531112
 10
6.3375609687
 20
198.1498725019
 10
4.4842237905
 20
199.4588073312
 10
2.5257802073
 20
200.512677276
 10
0.5081344768
 20
201.2867805181
 10
-1.5214214952
 20
201.7629727336
 10
-3.5153166368
 20
201.9300923806
 10
-5.4268157359
 20
201.7842223161
 10
-7.2111148737
 20
201.3287816109
 10
-8.8263915907
 20
200.5744454091
 10
-10.2347851697
 20
199.5388947119
 10
-11.4032840589
 20
198.2464019499
 10
-12.3044996348
 20
196.7272620581
 10
-12.9173081681
 20
195.0170823878
 10
-13.2273459461
 20
193.1559481012
 10
-13.2273459461
 20
191.1874826085
 10
-12.9173081681
 20
189.1578250724
 10
-12.3044996348
 20
187.1145489453
 10
-11.4032840589
 20
185.1055468878
 10
-10.2347851697
 20
183.1779082055
 10
-8.8263915907
 20
181.3768151151
 10
-7.2111148737
 20
179.7444837123
 10
-5.4268157359
 20
178.3191744616
 10
-3.5153166368
 20
177.1342954039
 10
-1.5214214952
 20
176.2176190999
 10
0.5081344768
 20
175.5906316653
 10
2.5257802073
 20
175.2680291541
 10
4.4842237905
 20
175.2573730959
 10
6.3375609687
 20
175.5589132595
 10
8.0423510892
 20
176.1655817991
 10
9.5586353166
 20
177.0631589183
 10
10.8508732337
 20
178.2306061703
 10
11.888775879
 20
179.6405595808
 10
12.6480156941
 20
181.259971037
 10
13.1107967414
 20
183.0508829069
 10
13.2662718252
 20
184.9713177342
  0
LWPOLYLINE
  5
298
330
263
100
AcDbEntity
  8
0
  6
Continuous
 62
     7
370
    25
100
AcDbPolyline
 90
       11
 70
   128
 43
0.0
 10
68.6931245952
 20
214.5926009417
 10
67.2356444046
 20
213.8363060722
 10
65.1938360427
 20
213.1427603214
 10
62.9956412567
 20
212.7728049434
 10
60.6820082565
 20
212.733331507
 10
58.2960356472
 20
213.0250753275
 10
55.8821695842
 20
213.6426017696
 10
53.4853758249
 20
214.5744074841
 10
51.1503021023
 20
215.8031346936
 10
48.9204464215
 20
217.305894535
 10
46.837346775
 20
219.0546934357
  0
LWPOLYLINE
  5
29A
330
263
100
AcDbEntity
  8
0
  6
Continuous
 62
     7
370
    25
100
AcDbPolyline
 90
       19
 70
   128
 43
0.0
 10
46.837346775
 20
219.0546934357
 10
42.5413386512
 20
222.8615447177
 10
38.0739480733
 20
226.4326068995
 10
33.4549038804
 20
229.7521094973
 10
28.7046046425
 20
232.8053929616
 10
23.8440285769
 20
235.5789734169
 10
18.8946409039
 20
238.060602209
 10
13.8782990527
 20
240.2393199973
 10
8.8171561347
 20
242.1055051531
 10
3.7335631114
 20
243.650916251
 10
-1.3500299118
 20
244.8687284642
 10
-6.4111728298
 20
245.7535637042
 10
-11.427514681
 20
246.3015143718
 10
-16.376902354
 20
246.5101606136
 10
-21.2374784196
 20
246.3785810085
 10
-25.9877776575
 20
245.9073566367
 10
-30.6068218504
 20
245.0985685139
 10
-35.0742124283
 20
243.955788401
 10
-39.3702205521
 20
242.4840630305
  0
LWPOLYLINE
  5
29D
330
263
100
AcDbEntity
  8
0
  6
Continuous
 62
     7
370
    25
100
AcDbPolyline
 90
       21
 70
   128
 43
0.0
 10
-39.3702205521
 20
242.4840630305
 10
-41.4533201987
 20
241.8675478268
 10
-43.6831758794
 20
241.5768419734
 10
-46.0182496021
 20
241.6173607704
 10
-48.4150433613
 20
241.9883494293
 10
-50.8289094244
 20
242.6828971333
 10
-53.2148820336
 20
243.6880657727
 10
-55.5285150339
 20
244.9851309577
 10
-57.7267098198
 20
246.5499308181
 10
-59.7685181817
 20
248.3533160931
 10
-61.6159050932
 20
250.3616931272
 10
-63.2344572313
 20
252.5376496563
 10
-64.5940240322
 20
254.8406517273
 10
-65.6692793388
 20
257.227798769
 10
-66.4401931791
 20
259.6546227488
 10
-66.8924048871
 20
262.0759165276
 10
-67.0174906141
 20
264.4465759835
 10
-66.8131202497
 20
266.7224402164
 10
-66.2831008272
 20
268.8611141818
 10
-65.4373056055
 20
270.8227584301
 10
-64.9595614837
 20
271.6349171311
  0
LWPOLYLINE
  5
29E
330
263
100
AcDbEntity
  8
0
  6
Continuous
 62
     7
370
    25
100
AcDbPolyline
 90
       20
 70
   128
 43
0.0
 10
-8.330992973
 20
200.8470534768
 10
-8.5709365234
 20
200.3713341125
 10
-9.1837450566
 20
198.6611544423
 10
-9.4937828346
 20
196.8000201557
 10
-9.4937828346
 20
194.8315546629
 10
-9.1837450566
 20
192.8018971268
 10
-8.5709365234
 20
190.7586209997
 10
-7.6697209475
 20
188.7496189423
 10
-6.5012220582
 20
186.8219802599
 10
-5.0928284792
 20
185.0208871696
 10
-3.4775517622
 20
183.3885557668
 10
-1.6932526244
 20
181.9632465161
 10
0.2182464747
 20
180.7783674583
 10
2.2121416163
 20
179.8616911543
 10
4.2416975882
 20
179.2347037197
 10
6.2593433187
 20
178.9121012086
 10
8.2177869019
 20
178.9014451503
 10
10.0711240801
 20
179.2029853139
 10
11.7759142006
 20
179.8096538535
 10
12.0645560845
 20
179.9506308866
  0
LWPOLYLINE
  5
29F
330
263
100
AcDbEntity
  8
0
  6
Continuous
 62
     7
370
    25
100
AcDbPolyline
 90
       12
 70
   128
 43
0.0
 10
-5.5153700964
 20
126.0793914207
 10
-5.3604126644
 20
124.7523808187
 10
-4.9038941635
 20
123.4126814824
 10
-4.1704256243
 20
122.1325169497
 10
-3.1995485256
 20
120.980901222
 10
-2.0436031032
 20
120.0199182012
 10
-0.7649066738
 20
119.3013747307
 10
0.5676059069
 20
118.864007675
 10
1.8820985408
 20
118.7313956052
 10
3.1077065899
 20
118.9106876724
 10
4.1783572069
 20
119.3922181949
 10
4.6542961698
 20
119.7540786822
  0
LWPOLYLINE
  5
2A1
330
263
100
AcDbEntity
  8
0
  6
Continuous
 62
     7
370
    25
100
AcDbPolyline
 90
       26
 70
   128
 43
0.0
 10
78.1609747721
 20
22.8001941349
 10
76.0862129502
 20
21.5752377241
 10
73.8112069708
 20
20.6502424018
 10
71.366722387
 20
20.0377171432
 10
68.7858166593
 20
19.7459453013
 10
66.1033921103
 20
19.77887259
 10
63.3557239303
 20
20.1360537241
 10
60.5799696178
 20
20.8126584414
 10
57.8136664882
 20
21.799536824
 10
55.0942240457
 20
23.0833430346
 10
52.4584180843
 20
24.6467157966
 10
49.9418933578
 20
26.4685131754
 10
47.5786815461
 20
28.5240984866
 10
45.4007410349
 20
30.7856734653
 10
43.4375247335
 20
33.2226541895
 10
41.7155817744
 20
35.8020846756
 10
40.2581984822
 20
38.4890825512
 10
39.0850834658
 20
41.2473107795
 10
38.2121010933
 20
44.0394690555
 10
37.6510569538
 20
46.8277982283
 10
37.4095382067
 20
49.5745909293
 10
37.4908109788
 20
52.2427014992
 10
37.8937761953
 20
54.7960483197
 10
38.6129844429
 20
57.2001017553
 10
39.6387096638
 20
59.4223511073
 10
40.70710061
 20
61.0989991448
  0
LWPOLYLINE
  5
2A3
330
263
100
AcDbEntity
  8
0
  6
Continuous
 62
     7
370
    25
100
AcDbPolyline
 90
       12
 70
   128
 43
0.0
 10
132.8949238118
 20
-39.3882346499
 10
132.4189848502
 20
-39.7500951361
 10
131.3483342332
 20
-40.2316256586
 10
130.1227261841
 20
-40.4109177258
 10
128.8082335501
 20
-40.278305656
 10
127.4757209694
 20
-39.8409386003
 10
126.1970245401
 20
-39.1223951298
 10
125.0410791176
 20
-38.161412109
 10
124.0702020189
 20
-37.0097963813
 10
123.3367334797
 20
-35.7296318486
 10
122.8802149788
 20
-34.3899325123
 10
122.7252575468
 20
-33.0629219103
  0
LWPOLYLINE
  5
2A5
330
263
100
AcDbEntity
  8
0
  6
Continuous
 62
     7
370
    25
100
AcDbPolyline
 90
       13
 70
   128
 43
0.0
 10
-149.4622393854
 20
161.0733130401
 10
-151.3079416517
 20
163.5857693237
 10
-152.9002987936
 20
166.223446036
 10
-154.2177769124
 20
168.9506731246
 10
-155.2425593766
 20
171.7305695214
 10
-155.9607877613
 20
174.5255418967
 10
-156.3627492599
 20
177.2977930438
 10
-156.4430080325
 20
180.0098330217
 10
-156.200478717
 20
182.6249861421
 10
-155.6384411063
 20
185.1078869453
 10
-154.7644957949
 20
187.4249584573
 10
-153.5904613939
 20
189.5448662609
 10
-153.1458616419
 20
190.1878420768
  0
LWPOLYLINE
  5
2A8
330
263
100
AcDbEntity
  8
0
  6
Continuous
 62
     7
370
    25
100
AcDbPolyline
 90
       15
 70
   128
 43
0.0
 10
-36.952357293
 20
54.0636028097
 10
-37.9191134225
 20
53.4449743565
 10
-40.0976831182
 20
52.3681767188
 10
-42.4614274812
 20
51.5981136034
 10
-44.9783809238
 20
51.145198793
 10
-47.6145059685
 20
51.0155571833
 10
-50.3341535462
 20
51.2109419548
 10
-53.1005450891
 20
51.7287108636
 10
-55.8762698972
 20
52.5618619733
 10
-58.6237910542
 20
53.6991283447
 10
-61.3059530498
 20
55.1251304008
 10
-63.8864842441
 20
56.8205839102
 10
-66.3304873797
 20
58.7625607726
 10
-68.6049115068
 20
60.9247990826
 10
-70.6789989407
 20
63.2780582761
  0
LWPOLYLINE
  5
2AA
330
263
100
AcDbEntity
  8
0
  6
Continuous
 62
     7
370
    25
100
AcDbPolyline
 90
       13
 70
   128
 43
0.0
 10
44.3695426609
 20
-79.5340597919
 10
42.5238403946
 20
-77.0216035084
 10
40.9314832527
 20
-74.383926796
 10
39.6140051339
 20
-71.6566997075
 10
38.5892226697
 20
-68.8768033106
 10
37.8709942849
 20
-66.0818309353
 10
37.4690327864
 20
-63.3095797882
 10
37.3887740138
 20
-60.5975398104
 10
37.6313033293
 20
-57.98238669
 10
38.19334094
 20
-55.4994858868
 10
39.0672862514
 20
-53.1824143747
 10
40.2413206524
 20
-51.0625065711
 10
40.6859204044
 20
-50.4195307553
  0
LWPOLYLINE
  5
2AC
330
263
100
AcDbEntity
  8
0
  6
Continuous
 62
     7
370
    25
100
AcDbPolyline
 90
       16
 70
   128
 43
0.0
 10
12.0645560845
 20
-8.6261752679
 10
10.9446779851
 20
-9.107903402
 10
9.1603788473
 20
-9.5633441072
 10
7.2488797482
 20
-9.7092141717
 10
5.2549846066
 20
-9.5420945247
 10
3.2254286347
 20
-9.0659023092
 10
1.2077829042
 20
-8.2917990671
 10
-0.750660679
 20
-7.2379291223
 10
-2.6039978572
 20
-5.928994293
 10
-4.3087879778
 20
-4.3956749023
 10
-5.8250722052
 20
-2.6739106571
 10
-7.1173101223
 20
-0.8040582521
 10
-8.1552127676
 20
1.1700545573
 10
-8.9144525827
 20
3.2021562399
 10
-9.3772336299
 20
5.2446160547
 10
-9.5327087137
 20
7.2495604747
  0
LWPOLYLINE
  5
2AF
330
263
100
AcDbEntity
  8
0
  6
Continuous
 62
     7
370
    25
100
AcDbPolyline
 90
       15
 70
   128
 43
0.0
 10
156.8794247533
 20
-186.5437700223
 10
155.9126686238
 20
-187.1623984756
 10
153.734098928
 20
-188.2391961133
 10
151.3703545651
 20
-189.0092592286
 10
148.8534011225
 20
-189.4621740391
 10
146.2172760778
 20
-189.5918156487
 10
143.4976285001
 20
-189.3964308773
 10
140.7312369572
 20
-188.8786619685
 10
137.9555121491
 20
-188.0455108587
 10
135.2079909921
 20
-186.9082444874
 10
132.5258289965
 20
-185.4822424313
 10
129.9452978022
 20
-183.7867889219
 10
127.5012946666
 20
-181.8448120594
 10
125.2268705395
 20
-179.6825737495
 10
123.1527831056
 20
-177.3293145559
  0
SPLINE
  5
2B0
330
263
100
AcDbEntity
  8
0
  6
Continuous
 62
     7
370
    25
100
AcDbSpline
210
0.0
220
0.0
230
1.0
 70
     8
 71
     3
 72
    28
 73
    24
 74
     0
 42
0.000000001
 43
0.00000001
 40
0.0
 40
0.0
 40
0.0
 40
0.0
 40
0.125
 40
0.125
 40
0.2499999999999999
 40
0.2499999999999999
 40
0.3125
 40
0.3125
 40
0.3749999999999999
 40
0.3749999999999999
 40
0.4374999999999999
 40
0.4374999999999999
 40
0.4999999999999999
 40
0.4999999999999999
 40
0.6249999999999999
 40
0.6249999999999999
 40
0.6874999999999999
 40
0.6874999999999999
 40
0.7499999999999998
 40
0.7499999999999998
 40
0.8749999999999999
 40
0.8749999999999999
 40
1.0
 40
1.0
 40
1.0
 40
1.0
 10
-0.9431267884495329
 20
-108.2627344698633
 30
0.0
 10
-0.7365456548741531
 20
-108.6014555833732
 30
0.0
 10
-0.5113782612402133
 20
-108.9248131430538
 30
0.0
 10
-0.0122958054158311
 20
-109.5350764328464
 30
0.0
 10
0.2614814932421832
 20
-109.8220701824452
 30
0.0
 10
0.7227230378935865
 20
-110.2177749060306
 30
0.0
 10
0.8858178059100116
 20
-110.3443376013418
 30
0.0
 10
1.225812945999938
 20
-110.5795408962886
 30
0.0
 10
1.403074095690953
 20
-110.6886084804695
 30
0.0
 10
1.77361003846038
 20
-110.8883202049331
 30
0.0
 10
1.966886199142537
 20
-110.9789641692579
 30
0.0
 10
2.371023245116481
 20
-111.1402838565528
 30
0.0
 10
2.583338625984947
 20
-111.2112441764634
 30
0.0
 10
3.232188547191328
 20
-111.3876536595911
 30
0.0
 10
3.683393771153666
 20
-111.4584628322057
 30
0.0
 10
4.385129843294336
 20
-111.5008270616618
 30
0.0
 10
4.62449169969738
 20
-111.50421112688
 30
0.0
 10
5.101413284488679
 20
-111.49118674294
 30
0.0
 10
5.339606129234182
 20
-111.4749488584682
 30
0.0
 10
6.053343991999617
 20
-111.4008456982437
 30
0.0
 10
6.528050073493722
 20
-111.3177924708165
 30
0.0
 10
7.474921519721591
 20
-111.098192970428
 30
0.0
 10
7.946278251799747
 20
-110.9615806694095
 30
0.0
 10
8.410253011330592
 20
-110.8047826807577
 30
0.0
  0
LWPOLYLINE
  5
2B2
330
263
100
AcDbEntity
  8
0
  6
Continuous
 62
     7
370
    25
100
AcDbPolyline
 90
       12
 70
   128
 43
0.0
 10
-8.330992973
 20
-88.8754941605
 10
-8.7967581566
 20
-89.8732707246
 10
-9.3180566746
 20
-91.6509509291
 10
-9.528356484
 20
-93.5680441664
 10
-9.422646485
 20
-95.5788692467
 10
-9.0034455737
 20
-97.635511504
 10
-8.2807426207
 20
-99.688964524
 10
-7.2717584529
 20
-101.6902978867
 10
-6.0005355093
 20
-103.5918230982
 10
-4.4973649494
 20
-105.3482299291
 10
-2.7980648637
 20
-106.9176660835
 10
-0.9431267884
 20
-108.2627344699
  0
LWPOLYLINE
  5
2B3
330
263
100
AcDbEntity
  8
0
  6
Continuous
 62
     7
370
    25
100
AcDbPolyline
 90
       12
 70
   128
 43
0.0
 10
-133.7559977397
 20
36.643187548
 10
-133.6010403076
 20
35.3161769461
 10
-133.1445218067
 20
33.9764776098
 10
-132.4110532675
 20
32.6963130771
 10
-131.4401761689
 20
31.5446973494
 10
-130.2842307464
 20
30.5837143286
 10
-129.0055343171
 20
29.865170858
 10
-127.6730217363
 20
29.4278038023
 10
-126.3585291024
 20
29.2951917326
 10
-125.1329210533
 20
29.4744837998
 10
-124.0622704363
 20
29.9560143223
 10
-123.5863314748
 20
30.3178748084
  0
LWPOLYLINE
  5
2B7
330
263
100
AcDbEntity
  8
0
  6
Continuous
 62
     7
370
    25
100
AcDbPolyline
 90
       16
 70
   128
 43
0.0
 10
-4.4209484515
 20
-119.5263241534
 10
-4.5696359511
 20
-119.6945187306
 10
-5.1686799926
 20
-120.6877535847
 10
-5.4764993233
 20
-121.8628682023
 10
-5.4764993233
 20
-123.1565118501
 10
-5.1686799926
 20
-124.4989438643
 10
-4.5696359511
 20
-125.8177933874
 10
-3.711661818
 20
-127.0419609004
 10
-2.641011201
 20
-128.1054512157
 10
-1.4154031519
 20
-128.9509312952
 10
-0.1009105179
 20
-129.532821089
 10
1.2316020628
 20
-129.8197507676
 10
2.5102984921
 20
-129.7962518777
 10
3.6662439146
 20
-129.4635912507
 10
4.6371210133
 20
-128.8397027071
 10
4.654296222
 20
-128.8244384747
  0
LWPOLYLINE
  5
2B9
330
263
100
AcDbEntity
  8
0
  6
Continuous
 62
     7
370
    25
100
AcDbPolyline
 90
        3
 70
   128
 43
0.0
 10
68.6931245952
 20
-267.9908450766
 10
68.6574934564
 20
-268.0124503076
 10
66.7599540491
 20
-268.9432903499
  0
LWPOLYLINE
  5
2BA
330
263
100
AcDbEntity
  8
0
  6
Continuous
 62
     7
370
    25
100
AcDbPolyline
 90
       26
 70
   128
 43
0.0
 10
-115.741628484
 20
-112.3606418586
 10
-117.8163903059
 20
-113.5855982694
 10
-120.0913962853
 20
-114.5105935916
 10
-122.5358808691
 20
-115.1231188503
 10
-125.1167865967
 20
-115.4148906922
 10
-127.7992111458
 20
-115.3819634035
 10
-130.5468793258
 20
-115.0247822694
 10
-133.3226336383
 20
-114.3481775521
 10
-136.0889367679
 20
-113.3612991695
 10
-138.8083792104
 20
-112.0774929589
 10
-141.4441851718
 20
-110.5141201968
 10
-143.9607098983
 20
-108.6923228181
 10
-146.32392171
 20
-106.6367375069
 10
-148.5018622212
 20
-104.3751625282
 10
-150.4650785226
 20
-101.938181804
 10
-152.1870214817
 20
-99.3587513179
 10
-153.6444047739
 20
-96.6717534423
 10
-154.8175197903
 20
-93.913525214
 10
-155.6905021628
 20
-91.121366938
 10
-156.2515463023
 20
-88.3330377652
 10
-156.4930650494
 20
-85.5862450642
 10
-156.4117922773
 20
-82.9181344943
 10
-156.0088270608
 20
-80.3647876738
 10
-155.2896188132
 20
-77.9607342382
 10
-154.2638935923
 20
-75.7384848862
 10
-153.1955026461
 20
-74.0618368487
  0
LWPOLYLINE
  5
2BC
330
263
100
AcDbEntity
  8
0
  6
Continuous
 62
     7
370
    25
100
AcDbPolyline
 90
       23
 70
   128
 43
0.0
 10
66.7599540491
 20
-268.9432903499
 10
61.6399087693
 20
-270.7395086637
 10
56.3486546147
 20
-272.2147585275
 10
50.9018359791
 20
-273.3646781419
 10
45.315557206
 20
-274.1858675955
 10
39.6063349743
 20
-274.6758989174
 10
33.7910494634
 20
-274.8333232558
 10
27.8868944451
 20
-274.6576751619
 10
21.9113264472
 20
-274.1494739658
 10
15.8820131409
 20
-273.3102222413
 10
9.8167811035
 20
-272.142401363
 10
3.7335631114
 20
-270.6494641702
 10
-2.3496548806
 20
-268.8358247577
 10
-8.414886918
 20
-266.7068454248
 10
-14.4442002243
 20
-264.2688208212
 10
-20.4197682222
 20
-261.5289593355
 10
-26.3239232405
 20
-258.495361783
 10
-32.1392087514
 20
-255.1769974538
 10
-37.8484309832
 20
-251.5836775944
 10
-43.4347097562
 20
-247.7260263988
 10
-48.8815283918
 20
-243.6154495964
 10
-54.1727825464
 20
-239.2641007299
 10
-59.2928278263
 20
-234.6848452206
  0
LWPOLYLINE
  5
2BD
330
263
100
AcDbEntity
  8
0
  6
Continuous
 62
     7
370
    25
100
AcDbPolyline
 90
       12
 70
   128
 43
0.0
 10
-59.2928278263
 20
-234.6848452206
 10
-61.1903672335
 20
-232.7225840751
 10
-62.8669988327
 20
-230.5834138974
 10
-64.2914901493
 20
-228.3071833803
 10
-65.4373056055
 20
-225.9362943915
 10
-66.2831008272
 20
-223.5149121071
 10
-66.8131202497
 20
-221.0881422976
 10
-67.0174906141
 20
-218.7011910929
 10
-66.8924048871
 20
-216.3985228776
 10
-66.4401931791
 20
-214.2230320038
 10
-65.6692793388
 20
-212.2152437503
 10
-64.9595614837
 20
-210.9485288873
  0
LINE
  5
2C0
330
263
100
AcDbEntity
  8
0
  6
Continuous
 62
     7
370
    25
100
AcDbLine
 10
244.4673555277
 20
-250.4709805173
 30
0.0
 11
248.2009186392
 21
-246.8269084628
 31
0.0
  0
LINE
  5
2C1
330
263
100
AcDbEntity
  8
0
  6
Continuous
 62
     7
370
    25
100
AcDbLine
 10
-240.7337924163
 20
254.1150525717
 30
0.0
 11
-244.4673555277
 21
250.4709805173
 31
0.0
  0
LINE
  5
2C2
330
263
100
AcDbEntity
  8
0
  6
Continuous
 62
     7
370
    25
100
AcDbLine
 10
-119.4751915954
 20
-116.0047139131
 30
0.0
 11
-40.6631657558
 21
-61.0683741222
 31
0.0
  0
LINE
  5
2C3
330
263
100
AcDbEntity
  8
0
  6
Continuous
 62
     7
370
    25
100
AcDbLine
 10
-74.4274116607
 20
-19.1561220804
 30
0.0
 11
-153.2394375003
 21
-74.0924618713
 31
0.0
  0
LINE
  5
2C4
330
263
100
AcDbEntity
  8
0
  6
Continuous
 62
     7
370
    25
100
AcDbLine
 10
153.1958024968
 20
-157.4292409857
 30
0.0
 11
74.4125620522
 21
-59.6339862217
 31
0.0
  0
LINE
  5
2C5
330
263
100
AcDbEntity
  8
0
  6
Continuous
 62
     7
370
    25
100
AcDbLine
 10
40.6359795495
 20
-83.1781318464
 30
0.0
 11
119.4192199941
 21
-180.9733866104
 31
0.0
  0
LINE
  5
2C6
330
263
100
AcDbEntity
  8
0
  6
Continuous
 62
     7
370
    25
100
AcDbLine
 10
119.4751915954
 20
116.0047139131
 30
0.0
 11
40.6631657558
 21
61.0683741222
 31
0.0
  0
LINE
  5
2C7
330
263
100
AcDbEntity
  8
0
  6
Continuous
 62
     7
370
    25
100
AcDbLine
 10
74.4274116607
 20
19.1561220804
 30
0.0
 11
153.2394375003
 21
74.0924618713
 31
0.0
  0
LINE
  5
2C8
330
263
100
AcDbEntity
  8
0
  6
Continuous
 62
     7
370
    25
100
AcDbLine
 10
-153.1958024968
 20
157.4292409857
 30
0.0
 11
-74.4125620522
 21
59.6339862217
 31
0.0
  0
LINE
  5
2C9
330
263
100
AcDbEntity
  8
0
  6
Continuous
 62
     7
370
    25
100
AcDbLine
 10
-40.6359795495
 20
83.1781318464
 30
0.0
 11
-119.4192199941
 21
180.9733866104
 31
0.0
  0
LINE
  5
2CA
330
263
100
AcDbEntity
  8
0
  6
Continuous
 62
     7
370
    25
100
AcDbLine
 10
43.1037836636
 20
215.4106213813
 30
0.0
 11
46.837346775
 21
219.0546934357
 31
0.0
  0
LINE
  5
2CB
330
263
100
AcDbEntity
  8
0
  6
Continuous
 62
     7
370
    25
100
AcDbLine
 10
-43.1037836636
 20
238.8399909761
 30
0.0
 11
-39.3702205521
 21
242.4840630305
 31
0.0
  0
LINE
  5
2CC
330
263
100
AcDbEntity
  8
0
  6
Continuous
 62
     7
370
    25
100
AcDbLine
 10
74.4274116607
 20
19.1561220804
 30
0.0
 11
78.1609747721
 21
22.8001941349
 31
0.0
  0
LINE
  5
2CD
330
263
100
AcDbEntity
  8
0
  6
Continuous
 62
     7
370
    25
100
AcDbLine
 10
156.9290657575
 20
77.7059089031
 30
0.0
 11
78.1609747721
 21
22.8001941349
 31
0.0
  0
LINE
  5
2CE
330
263
100
AcDbEntity
  8
0
  6
Continuous
 62
     7
370
    25
100
AcDbLine
 10
-153.1958024968
 20
157.4292409857
 30
0.0
 11
-149.4622393854
 21
161.0733130401
 31
0.0
  0
LINE
  5
2CF
330
263
100
AcDbEntity
  8
0
  6
Continuous
 62
     7
370
    25
100
AcDbLine
 10
-74.4125620522
 20
59.6339862217
 30
0.0
 11
-70.6789989407
 21
63.2780582761
 31
0.0
  0
LINE
  5
2D0
330
263
100
AcDbEntity
  8
0
  6
Continuous
 62
     7
370
    25
100
AcDbLine
 10
-70.6789989407
 20
63.2780582761
 30
0.0
 11
-149.4622393854
 21
161.0733130401
 31
0.0
  0
LINE
  5
2D1
330
263
100
AcDbEntity
  8
0
  6
Continuous
 62
     7
370
    25
100
AcDbLine
 10
40.6359795495
 20
-83.1781318464
 30
0.0
 11
44.3695426609
 21
-79.5340597919
 31
0.0
  0
LINE
  5
2D2
330
263
100
AcDbEntity
  8
0
  6
Continuous
 62
     7
370
    25
100
AcDbLine
 10
119.4192199941
 20
-180.9733866104
 30
0.0
 11
123.1527831056
 21
-177.3293145559
 31
0.0
  0
LINE
  5
2D3
330
263
100
AcDbEntity
  8
0
  6
Continuous
 62
     7
370
    25
100
AcDbLine
 10
123.1527831056
 20
-177.3293145559
 30
0.0
 11
44.3695426609
 21
-79.5340597919
 31
0.0
  0
LINE
  5
2D4
330
263
100
AcDbEntity
  8
0
  6
Continuous
 62
     7
370
    25
100
AcDbLine
 10
-119.4751915954
 20
-116.0047139131
 30
0.0
 11
-115.741628484
 21
-112.3606418586
 31
0.0
  0
LINE
  5
2D5
330
263
100
AcDbEntity
  8
0
  6
Continuous
 62
     7
370
    25
100
AcDbLine
 10
-36.9735374986
 20
-57.4549270904
 30
0.0
 11
-115.741628484
 21
-112.3606418586
 31
0.0
  0
LINE
  5
2D6
330
263
100
AcDbEntity
  8
0
  6
Continuous
 62
     7
370
    25
100
AcDbLine
 10
63.0263909377
 20
-272.5873624043
 30
0.0
 11
66.7599540491
 21
-268.9432903499
 31
0.0
  0
LINE
  5
2D7
330
263
100
AcDbEntity
  8
0
  6
Continuous
 62
     7
370
    25
100
AcDbLine
 10
-63.0263909377
 20
-238.328917275
 30
0.0
 11
-59.2928278263
 21
-234.6848452206
 31
0.0
  0
LINE
  5
2D8
330
263
100
AcDbEntity
  8
0
  6
Continuous
 62
     8
370
    25
100
AcDbLine
 10
153.2394375003
 20
74.0924618713
 30
0.0
 11
156.8977729731
 21
77.6631094443
 31
0.0
  0
LINE
  5
2D9
330
263
100
AcDbEntity
  8
0
  6
Continuous
 62
     8
370
    25
100
AcDbLine
 10
-40.6631657558
 20
-61.0683741222
 30
0.0
 11
-37.004830283
 21
-57.4977265492
 31
0.0
  0
ARC
  5
2DA
330
263
100
AcDbEntity
  8
0
  6
Continuous
 62
     7
370
    25
100
AcDbCircle
 10
-1.270536949
 20
126.2045315767
 30
0.0
 40
4.246677349210196
100
AcDbArc
 50
137.8895269087
 51
181.6886239015
  0
ARC
  5
2DB
330
263
100
AcDbEntity
  8
0
  6
Continuous
 62
     7
370
    25
100
AcDbCircle
 10
126.9700906945
 20
-32.9377817543
 30
0.0
 40
4.246677349427332
100
AcDbArc
 50
137.8895269303
 51
181.6886239009
  0
ARC
  5
2DC
330
263
100
AcDbEntity
  8
0
  6
Continuous
 62
     7
370
    25
100
AcDbCircle
 10
0.9273756792
 20
7.4000698633
 30
0.0
 40
10.46116717112235
100
AcDbArc
 50
152.2542941599
 51
180.8243678876
  0
ARC
  5
2DD
330
263
100
AcDbEntity
  8
0
  6
Continuous
 62
     7
370
    25
100
AcDbCircle
 10
7.5906620757
 20
-100.9241148532
 30
0.0
 40
9.914601657136838
100
AcDbArc
 50
274.741768845
 51
296.8234577455
  0
ARC
  5
2DE
330
263
100
AcDbEntity
  8
0
  6
Continuous
 62
     7
370
    25
100
AcDbCircle
 10
-129.5111645919
 20
36.768327704
 30
0.0
 40
4.246677349519373
100
AcDbArc
 50
137.8895269395
 51
181.6886239006
  0
VIEWPORT
  5
37F
330
263
100
AcDbEntity
  8
0
100
AcDbViewport
 10
0.0
 20
0.0
 30
0.0
 40
205.6
 41
156.0
 68
     1
 69
     1
 12
0.0
 22
0.0000000001
 13
0.0
 23
0.0
 14
10.0
 24
10.0
 15
10.0
 25
10.0
 16
0.0
 26
0.0
 36
1.0
 17
0.0
 27
0.0
 37
0.0
 42
50.0
 43
0.0
 44
0.0
 45
714.0
 50
0.0
 51
0.0
 72
   100
 90
   557152
  1

281
     0
 71
     1
 74
     0
110
0.0
120
0.0
130
0.0
111
1.0
121
0.0
131
0.0
112
0.0
122
1.0
132
0.0
 79
     0
146
0.0
  0
ENDBLK
  5
266
330
263
100
AcDbEntity
  8
0
100
AcDbBlockEnd
  0
BLOCK
  5
2E1
330
2DF
100
AcDbEntity
  8
0
100
AcDbBlockBegin
  2
*Paper_Space9
 70
     0
 10
0.0
 20
0.0
 30
0.0
  3
*Paper_Space9
  1

  0
LINE
  5
2E3
330
2DF
100
AcDbEntity
  8
0
  6
Continuous
 62
     7
100
AcDbLine
 10
0.0
 20
-9.6344365081
 30
0.0
 11
0.0
 21
-13.7447194742
 31
0.0
  0
LINE
  5
2E4
330
2DF
100
AcDbEntity
  8
0
  6
Continuous
 62
     7
100
AcDbLine
 10
0.0
 20
-13.7447194742
 30
0.0
 11
2.3934221834
 21
-8.9932122534
 31
0.0
  0
LINE
  5
2E5
330
2DF
100
AcDbEntity
  8
0
  6
Continuous
 62
     7
100
AcDbLine
 10
2.3934221834
 20
-8.9932122534
 30
0.0
 11
0.0
 21
-9.6344365081
 31
0.0
  0
LINE
  5
2E6
330
2DF
100
AcDbEntity
  8
0
  6
Continuous
 62
     7
100
AcDbLine
 10
0.0
 20
9.6515619025
 30
0.0
 11
1.7549419935
 21
10.1217302579
 31
0.0
  0
LINE
  5
2E7
330
2DF
100
AcDbEntity
  8
0
  6
Continuous
 62
     7
100
AcDbLine
 10
1.7549419935
 20
10.1217302579
 30
0.0
 11
0.0
 21
13.6339637914
 31
0.0
  0
LINE
  5
2E8
330
2DF
100
AcDbEntity
  8
0
  6
Continuous
 62
     7
100
AcDbLine
 10
0.0
 20
13.6339637914
 30
0.0
 11
0.0
 21
9.6515619025
 31
0.0
  0
LINE
  5
2E9
330
2DF
100
AcDbEntity
  8
0
  6
Continuous
 62
     7
100
AcDbLine
 10
0.0
 20
9.6515619025
 30
0.0
 11
-0.031282959
 21
9.643180852
 31
0.0
  0
LINE
  5
2EA
330
2DF
100
AcDbEntity
  8
0
  6
CENTERX2
 62
     7
100
AcDbLine
 10
-5.4258427132
 20
-1.4536432286
 30
0.0
 11
8.984961791
 21
2.4071705644
 31
0.0
  0
LINE
  5
2EB
330
2DF
100
AcDbEntity
  8
0
  6
CENTERX2
 62
     7
100
AcDbLine
 10
0.0
 20
-139.6993293676
 30
0.0
 11
17.8394221163
 21
-134.9199510237
 31
0.0
  0
LINE
  5
2EC
330
2DF
100
AcDbEntity
  8
0
  6
Continuous
 62
     7
100
AcDbLine
 10
5.6568542495
 20
-144.4461793256
 30
0.0
 11
5.6568542495
 21
-151.6720067067
 31
0.0
  0
LINE
  5
2ED
330
2DF
100
AcDbEntity
  8
0
  6
Continuous
 62
     7
100
AcDbLine
 10
5.6568542495
 20
-151.6720067067
 30
0.0
 11
0.3535533906
 21
-145.8669922371
 31
0.0
  0
LINE
  5
2EE
330
2DF
100
AcDbEntity
  8
0
  6
Continuous
 62
     7
100
AcDbLine
 10
0.3535533906
 20
-145.8669922371
 30
0.0
 11
5.6568542495
 21
-144.4461793256
 31
0.0
  0
LWPOLYLINE
  5
2F3
330
2DF
100
AcDbEntity
  8
0
  6
Continuous
 62
     7
370
    25
100
AcDbPolyline
 90
      199
 70
   128
 43
0.0
 10
247.4873734153
 20
-66.3046025354
 10
247.3627740121
 20
-55.5723943495
 10
246.9891012635
 20
-44.7842294731
 10
246.3667314263
 20
-33.9509706739
 10
245.4962911742
 20
-23.0835261251
 10
244.3786569666
 20
-12.1928384222
 10
243.0149541666
 20
-1.2898735646
 10
241.4065559073
 20
9.6143900864
 10
239.5550817093
 20
20.5089728615
 10
237.4623958503
 20
31.3829048395
 10
235.1306054874
 20
42.2252368925
 10
232.562058536
 20
53.0250517112
 10
229.7593413051
 20
63.7714747976
 10
226.7252758934
 20
74.4536854145
 10
223.4629173475
 20
85.0609274814
 10
219.975550586
 20
95.5825204046
 10
216.2666870916
 20
106.007869832
 10
212.3400613754
 20
116.3264783203
 10
208.1996272167
 20
126.5279559055
 10
203.8495536818
 20
136.6020305645
 10
199.2942209258
 20
146.538558558
 10
194.5382157829
 20
156.3275346445
 10
189.5863271469
 20
165.9591021549
 10
184.44354115
 20
175.4235629172
 10
179.1150361419
 20
184.7113870217
 10
173.6061774752
 20
193.8132224168
 10
167.9225121038
 20
202.7199043258
 10
162.0697629969
 20
211.4224644749
 10
156.0538233768
 20
219.9121401238
 10
149.8807507846
 20
228.1803828887
 10
143.5567609812
 20
236.2188673501
 10
137.0882216883
 20
244.0194994355
 10
130.4816461766
 20
251.5744245697
 10
123.7436867076
 20
258.8760355833
 10
116.8811278355
 20
265.9169803731
 10
109.9008795752
 20
272.6901693044
 10
102.8099704451
 20
279.1887823503
 10
95.6155403896
 20
285.4062759581
 10
88.3248335899
 20
291.3363896389
 10
80.9451911697
 20
296.9731522708
 10
73.4840438035
 20
302.3108881117
 10
65.9489042341
 20
307.3442225142
 10
58.3473597084
 20
312.0680873369
 10
50.6870643374
 20
316.4777260487
 10
42.9757313891
 20
320.5686985169
 10
35.2211255223
 20
324.3368854792
 10
27.4310549676
 20
327.7784926907
 10
19.6133636658
 20
330.8900547447
 10
11.7759233693
 20
333.6684385618
 10
3.9266257162
 20
336.1108465452
 10
-3.9266257162
 20
338.214819397
 10
-11.7759233693
 20
339.9782385949
 10
-19.6133636658
 20
341.3993285253
 10
-27.4310549676
 20
342.4766582711
 10
-35.2211255223
 20
343.2091430524
 10
-42.9757313891
 20
343.5960453193
 10
-50.6870643374
 20
343.636975494
 10
-58.3473597084
 20
343.3318923632
 10
-65.9489042341
 20
342.6811031197
 10
-73.4840438035
 20
341.6852630533
 10
-80.9451911697
 20
340.3453748904
 10
-88.3248335899
 20
338.6627877848
 10
-95.6155403896
 20
336.6391959592
 10
-102.8099704451
 20
334.2766369989
 10
-109.9008795752
 20
331.5774898005
 10
-116.8811278355
 20
328.5444721766
 10
-123.7436867076
 20
325.1806381186
 10
-130.4816461766
 20
321.4893747225
 10
-137.0882216883
 20
317.4743987775
 10
-143.5567609812
 20
313.1397530241
 10
-149.8807507846
 20
308.4898020832
 10
-156.0538233768
 20
303.5292280611
 10
-162.0697629969
 20
298.2630258354
 10
-167.9225121038
 20
292.6964980253
 10
-173.6061774752
 20
286.8352496526
 10
-179.1150361419
 20
280.6851824975
 10
-184.44354115
 20
274.2524891562
 10
-189.5863271469
 20
267.5436468058
 10
-194.5382157829
 20
260.5654106817
 10
-199.2942209258
 20
253.3248072762
 10
-203.8495536818
 20
245.8291272633
 10
-208.1996272167
 20
238.0859181572
 10
-212.3400613754
 20
230.1029767132
 10
-216.2666870916
 20
221.8883410767
 10
-219.975550586
 20
213.4502826894
 10
-223.4629173475
 20
204.7972979608
 10
-226.7252758934
 20
195.9380997131
 10
-229.7593413051
 20
186.881608408
 10
-232.562058536
 20
177.6369431644
 10
-235.1306054874
 20
168.2134125767
 10
-237.4623958503
 20
158.6205053414
 10
-239.5550817093
 20
148.8678807029
 10
-241.4065559073
 20
138.9653587276
 10
-243.0149541666
 20
128.9229104155
 10
-244.3786569666
 20
118.7506476611
 10
-245.4962911741
 20
108.4588130704
 10
-246.3667314263
 20
98.0577696487
 10
-246.9891012635
 20
87.557990365
 10
-247.3627740121
 20
76.9700476069
 10
-247.4873734153
 20
66.3046025354
 10
-247.3627740121
 20
55.5723943495
 10
-246.9891012635
 20
44.7842294731
 10
-246.3667314263
 20
33.9509706739
 10
-245.4962911741
 20
23.0835261251
 10
-244.3786569666
 20
12.1928384222
 10
-243.0149541666
 20
1.2898735646
 10
-241.4065559073
 20
-9.6143900864
 10
-239.5550817093
 20
-20.5089728615
 10
-237.4623958503
 20
-31.3829048395
 10
-235.1306054874
 20
-42.2252368925
 10
-232.562058536
 20
-53.0250517112
 10
-229.7593413051
 20
-63.7714747976
 10
-226.7252758934
 20
-74.4536854145
 10
-223.4629173475
 20
-85.0609274814
 10
-219.975550586
 20
-95.5825204046
 10
-216.2666870916
 20
-106.007869832
 10
-212.3400613754
 20
-116.3264783203
 10
-208.1996272167
 20
-126.5279559055
 10
-203.8495536818
 20
-136.6020305645
 10
-199.2942209258
 20
-146.538558558
 10
-194.5382157829
 20
-156.3275346445
 10
-189.5863271469
 20
-165.9591021549
 10
-184.44354115
 20
-175.4235629172
 10
-179.1150361419
 20
-184.7113870217
 10
-173.6061774752
 20
-193.8132224168
 10
-167.9225121038
 20
-202.7199043258
 10
-162.0697629969
 20
-211.4224644749
 10
-156.0538233768
 20
-219.9121401238
 10
-149.8807507846
 20
-228.1803828887
 10
-143.5567609812
 20
-236.2188673501
 10
-137.0882216883
 20
-244.0194994355
 10
-130.4816461766
 20
-251.5744245697
 10
-123.7436867076
 20
-258.8760355833
 10
-116.8811278355
 20
-265.9169803731
 10
-109.9008795752
 20
-272.6901693044
 10
-102.8099704451
 20
-279.1887823503
 10
-95.6155403896
 20
-285.4062759581
 10
-88.3248335899
 20
-291.3363896389
 10
-80.9451911697
 20
-296.9731522708
 10
-73.4840438035
 20
-302.3108881117
 10
-65.9489042341
 20
-307.3442225142
 10
-58.3473597084
 20
-312.0680873369
 10
-50.6870643374
 20
-316.4777260487
 10
-42.9757313891
 20
-320.5686985169
 10
-35.2211255223
 20
-324.3368854792
 10
-27.4310549676
 20
-327.7784926907
 10
-19.6133636658
 20
-330.8900547447
 10
-11.7759233693
 20
-333.6684385618
 10
-3.9266257162
 20
-336.1108465452
 10
3.9266257162
 20
-338.214819397
 10
11.7759233693
 20
-339.9782385949
 10
19.6133636658
 20
-341.3993285253
 10
27.4310549676
 20
-342.4766582711
 10
35.2211255223
 20
-343.2091430524
 10
42.9757313891
 20
-343.5960453193
 10
50.6870643374
 20
-343.636975494
 10
58.3473597084
 20
-343.3318923632
 10
65.9489042341
 20
-342.6811031197
 10
73.4840438035
 20
-341.6852630533
 10
80.9451911697
 20
-340.3453748904
 10
88.3248335899
 20
-338.6627877848
 10
95.6155403896
 20
-336.6391959592
 10
102.8099704451
 20
-334.2766369989
 10
109.9008795752
 20
-331.5774898005
 10
116.8811278355
 20
-328.5444721766
 10
123.7436867076
 20
-325.1806381186
 10
130.4816461766
 20
-321.4893747225
 10
137.0882216883
 20
-317.4743987775
 10
143.5567609812
 20
-313.1397530241
 10
149.8807507846
 20
-308.4898020832
 10
156.0538233768
 20
-303.5292280611
 10
162.0697629969
 20
-298.2630258354
 10
167.9225121038
 20
-292.6964980253
 10
173.6061774752
 20
-286.8352496526
 10
179.1150361419
 20
-280.6851824975
 10
184.44354115
 20
-274.2524891562
 10
189.5863271469
 20
-267.5436468058
 10
194.5382157829
 20
-260.5654106817
 10
199.2942209258
 20
-253.3248072762
 10
203.8495536818
 20
-245.8291272633
 10
208.1996272167
 20
-238.0859181572
 10
212.3400613754
 20
-230.1029767132
 10
216.2666870916
 20
-221.8883410767
 10
219.975550586
 20
-213.4502826894
 10
223.4629173475
 20
-204.7972979608
 10
226.7252758934
 20
-195.9380997131
 10
229.7593413051
 20
-186.881608408
 10
232.562058536
 20
-177.6369431644
 10
235.1306054874
 20
-168.2134125767
 10
237.4623958503
 20
-158.6205053414
 10
239.5550817093
 20
-148.8678807029
 10
241.4065559073
 20
-138.9653587276
 10
243.0149541666
 20
-128.9229104155
 10
244.3786569666
 20
-118.7506476611
 10
245.4962911741
 20
-108.4588130704
 10
246.3667314263
 20
-98.0577696487
 10
246.9891012635
 20
-87.557990365
 10
247.3627740121
 20
-76.9700476069
 10
247.4873734153
 20
-66.3046025354
  0
LWPOLYLINE
  5
2F4
330
2DF
100
AcDbEntity
  8
0
  6
Continuous
 62
     7
370
    25
100
AcDbPolyline
 90
       63
 70
   128
 43
0.0
 10
253.1442276648
 20
-64.7890687631
 10
253.0196282616
 20
-54.0568605772
 10
252.645955513
 20
-43.2686957009
 10
252.0235856758
 20
-32.4354369017
 10
251.1531454236
 20
-21.5679923529
 10
250.0355112161
 20
-10.67730465
 10
248.6718084161
 20
0.2256602077
 10
247.0634101568
 20
11.1299238586
 10
245.2119359588
 20
22.0245066338
 10
243.1192500998
 20
32.8984386117
 10
240.7874597369
 20
43.7407706647
 10
238.2189127855
 20
54.5405854834
 10
235.4161955546
 20
65.2870085698
 10
232.3821301429
 20
75.9692191867
 10
229.119771597
 20
86.5764612536
 10
225.6324048355
 20
97.0980541768
 10
221.9235413411
 20
107.5234036042
 10
217.9969156249
 20
117.8420120925
 10
213.8564814662
 20
128.0434896778
 10
209.5064079312
 20
138.1175643367
 10
204.9510751753
 20
148.0540923302
 10
200.1950700323
 20
157.8430684167
 10
195.2431813964
 20
167.4746359272
 10
190.1003953995
 20
176.9390966895
 10
184.7718903914
 20
186.226920794
 10
179.2630317247
 20
195.328756189
 10
173.5793663533
 20
204.235438098
 10
167.7266172464
 20
212.9379982471
 10
161.7106776262
 20
221.427673896
 10
155.537605034
 20
229.695916661
 10
149.2136152307
 20
237.7344011224
 10
142.7450759377
 20
245.5350332078
 10
136.1385004261
 20
253.0899583419
 10
129.4005409571
 20
260.3915693555
 10
122.537982085
 20
267.4325141453
 10
115.5577338247
 20
274.2057030767
 10
108.4668246946
 20
280.7043161225
 10
101.2723946391
 20
286.9218097303
 10
93.9816878394
 20
292.8519234111
 10
86.6020454192
 20
298.488686043
 10
79.140898053
 20
303.826421884
 10
71.6057584836
 20
308.8597562864
 10
64.0042139579
 20
313.5836211092
 10
56.3439185869
 20
317.9932598209
 10
48.6325856386
 20
322.0842322892
 10
40.8779797718
 20
325.8524192515
 10
33.0879092171
 20
329.294026463
 10
25.2702179153
 20
332.4055885169
 10
17.4327776188
 20
335.1839723341
 10
9.5834799657
 20
337.6263803174
 10
1.7302285333
 20
339.7303531693
 10
-6.1190691198
 20
341.4937723672
 10
-13.9565094163
 20
342.9148622976
 10
-21.7742007181
 20
343.9921920433
 10
-29.5642712728
 20
344.7246768247
 10
-37.3188771396
 20
345.1115790916
 10
-45.0302100879
 20
345.1525092662
 10
-52.6905054589
 20
344.8474261354
 10
-60.2920499846
 20
344.196636892
 10
-67.827189554
 20
343.2007968256
 10
-75.2883369202
 20
341.8609086627
 10
-82.6679793404
 20
340.1783215571
 10
-84.9177807862
 20
339.5927963738
  0
LWPOLYLINE
  5
2F5
330
2DF
100
AcDbEntity
  8
0
  6
Continuous
 62
     7
370
    25
100
AcDbPolyline
 90
       39
 70
   128
 43
0.0
 10
96.2314892852
 20
-336.5617288293
 10
101.2723946391
 20
-335.1236621869
 10
108.4668246946
 20
-332.7611032266
 10
115.5577338247
 20
-330.0619560283
 10
122.537982085
 20
-327.0289384043
 10
129.4005409571
 20
-323.6651043464
 10
136.1385004261
 20
-319.9738409503
 10
142.7450759377
 20
-315.9588650053
 10
149.2136152307
 20
-311.6242192519
 10
155.5376050341
 20
-306.9742683109
 10
161.7106776262
 20
-302.0136942888
 10
167.7266172464
 20
-296.7474920631
 10
173.5793663533
 20
-291.1809642531
 10
179.2630317247
 20
-285.3197158804
 10
184.7718903914
 20
-279.1696487252
 10
190.1003953995
 20
-272.736955384
 10
195.2431813964
 20
-266.0281130335
 10
200.1950700323
 20
-259.0498769094
 10
204.9510751753
 20
-251.809273504
 10
209.5064079312
 20
-244.313593491
 10
213.8564814662
 20
-236.570384385
 10
217.9969156249
 20
-228.587442941
 10
221.9235413411
 20
-220.3728073045
 10
225.6324048355
 20
-211.9347489172
 10
229.119771597
 20
-203.2817641886
 10
232.3821301429
 20
-194.4225659409
 10
235.4161955546
 20
-185.3660746357
 10
238.2189127855
 20
-176.1214093922
 10
240.7874597369
 20
-166.6978788045
 10
243.1192500998
 20
-157.1049715692
 10
245.2119359588
 20
-147.3523469307
 10
247.0634101568
 20
-137.4498249553
 10
248.6718084161
 20
-127.4073766433
 10
250.0355112161
 20
-117.2351138888
 10
251.1531454236
 20
-106.9432792982
 10
252.0235856758
 20
-96.5422358765
 10
252.645955513
 20
-86.0424565927
 10
253.0196282616
 20
-75.4545138347
 10
253.1442276648
 20
-64.7890687631
  0
LWPOLYLINE
  5
2F6
330
2DF
100
AcDbEntity
  8
0
  6
Continuous
 62
     7
370
    25
100
AcDbPolyline
 90
       23
 70
   128
 43
0.0
 10
-50.3906323643
 20
-273.6310477735
 10
-46.2970722612
 20
-278.3107279585
 10
-42.0666278571
 20
-282.718617127
 10
-37.7118071012
 20
-286.8416826875
 10
-33.2454856802
 20
-290.6677341728
 10
-28.6808689493
 20
-294.1854592825
 10
-24.0314528886
 20
-297.38445733
 10
-19.3109842004
 20
-300.2552699935
 10
-14.5334196648
 20
-302.7894092807
 10
-9.7128848745
 20
-304.9793826253
 10
-4.86363247
 20
-306.8187150398
 10
0.0
 20
-308.3019682595
 10
4.86363247
 20
-309.4247568217
 10
9.7128848745
 20
-310.1837610321
 10
14.5334196648
 20
-310.5767367799
 10
19.3109842004
 20
-310.6025221729
 10
24.0314528886
 20
-310.2610409726
 10
28.6808689493
 20
-309.5533028198
 10
33.2454856802
 20
-308.4814002496
 10
37.7118071012
 20
-307.0485025041
 10
42.0666278571
 20
-305.2588461623
 10
46.2970722612
 20
-303.1177226141
 10
50.3906323643
 20
-300.6314624153
  0
LWPOLYLINE
  5
2F7
330
2DF
100
AcDbEntity
  8
0
  6
Continuous
 62
     7
370
    25
100
AcDbPolyline
 90
       24
 70
   128
 43
0.0
 10
50.3906323643
 20
-300.6314624153
 10
51.9077462153
 20
-299.4120120334
 10
53.2482406537
 20
-297.8789183112
 10
54.3871448044
 20
-296.0607398839
 10
55.303243038
 20
-293.9913459755
 10
55.9794701777
 20
-291.7092854791
 10
56.4032293914
 20
-289.2570688639
 10
56.5666268467
 20
-286.6803762857
 10
56.4666187582
 20
-284.0272066519
 10
56.1050680874
 20
-281.3469834928
 10
55.4887098391
 20
-278.6896342947
 10
54.6290256013
 20
-276.1046604453
 10
53.5420296648
 20
-273.6402151164
 10
52.2479707073
 20
-271.3422062615
 10
50.7709545986
 20
-269.2534414377
 10
49.1384953542
 20
-267.4128303815
 10
47.3810026012
 20
-265.8546601944
 10
45.5312151042
 20
-264.6079566386
 10
43.6235909043
 20
-263.6959434427
 10
41.693665431
 20
-263.1356096869
 10
39.7773895443
 20
-262.9373933288
 10
37.9104598384
 20
-263.1049867642
 10
36.1276536811
 20
-263.6352680445
 10
34.4621813781
 20
-264.5183590326
  0
LWPOLYLINE
  5
2F8
330
2DF
100
AcDbEntity
  8
0
  6
Continuous
 62
     7
370
    25
100
AcDbPolyline
 90
       19
 70
   128
 43
0.0
 10
34.4621813781
 20
-264.5183590326
 10
31.0274524847
 20
-266.5646791149
 10
27.4557005108
 20
-268.2569125736
 10
23.7626989865
 20
-269.5875861868
 10
19.964756903
 20
-270.5508234489
 10
16.0786466886
 20
-271.1423705224
 10
12.1215301387
 20
-271.3596150241
 10
8.1108826262
 20
-271.2015975612
 10
4.0644159266
 20
-270.6690159686
 10
0.0
 20
-269.764222227
 10
-4.0644159266
 20
-268.4912120763
 10
-8.1108826262
 20
-266.8556073693
 10
-12.1215301387
 20
-264.8646312447
 10
-16.0786466886
 20
-262.5270762286
 10
-19.964756903
 20
-259.8532654046
 10
-23.7626989865
 20
-256.8550068255
 10
-27.4557005108
 20
-253.5455413665
 10
-31.0274524847
 20
-249.9394842511
 10
-34.4621813781
 20
-246.0527605074
  0
LWPOLYLINE
  5
2F9
330
2DF
100
AcDbEntity
  8
0
  6
Continuous
 62
     7
370
    25
100
AcDbPolyline
 90
       24
 70
   128
 43
0.0
 10
-34.4621813781
 20
-246.0527605074
 10
-36.1276536811
 20
-244.2772726461
 10
-37.9104598384
 20
-242.7917244201
 10
-39.7773895443
 20
-241.6237887822
 10
-41.693665431
 20
-240.7952221633
 10
-43.6235909043
 20
-240.321459192
 10
-45.5312151042
 20
-240.211325176
 10
-47.3810026012
 20
-240.4668717036
 10
-49.1384953542
 20
-241.0833384265
 10
-50.7709545986
 20
-242.0492417362
 10
-52.2479707073
 20
-243.3465886814
 10
-53.5420296648
 20
-244.9512121432
 10
-54.6290256013
 20
-246.8332210227
 10
-55.4887098391
 20
-248.9575570553
 10
-56.1050680874
 20
-251.2846478802
 10
-56.4666187582
 20
-253.7711441982
 10
-56.5666268467
 20
-256.3707272876
 10
-56.4032293914
 20
-259.034971834
 10
-55.9794701777
 20
-261.7142480026
 10
-55.303243038
 20
-264.3586459476
 10
-54.3871448044
 20
-266.9189055388
 10
-53.2482406537
 20
-269.3473339841
 10
-51.9077462153
 20
-271.5986942563
 10
-50.3906323643
 20
-273.6310477735
  0
LWPOLYLINE
  5
2FA
330
2DF
100
AcDbEntity
  8
0
  6
Continuous
 62
     7
370
    25
100
AcDbPolyline
 90
       19
 70
   128
 43
0.0
 10
-34.4621813781
 20
264.5183590326
 10
-31.0274524847
 20
266.5646791149
 10
-27.4557005108
 20
268.2569125736
 10
-23.7626989865
 20
269.5875861868
 10
-19.964756903
 20
270.5508234489
 10
-16.0786466886
 20
271.1423705224
 10
-12.1215301387
 20
271.3596150241
 10
-8.1108826262
 20
271.2015975612
 10
-4.0644159266
 20
270.6690159686
 10
0.0
 20
269.764222227
 10
4.0644159266
 20
268.4912120763
 10
8.1108826262
 20
266.8556073693
 10
12.1215301387
 20
264.8646312447
 10
16.0786466886
 20
262.5270762286
 10
19.964756903
 20
259.8532654046
 10
23.7626989865
 20
256.8550068255
 10
27.4557005108
 20
253.5455413665
 10
31.0274524847
 20
249.9394842511
 10
34.4621813781
 20
246.0527605074
  0
LWPOLYLINE
  5
2FB
330
2DF
100
AcDbEntity
  8
0
  6
Continuous
 62
     7
370
    25
100
AcDbPolyline
 90
       24
 70
   128
 43
0.0
 10
34.4621813781
 20
246.0527605074
 10
36.1276536811
 20
244.2772726461
 10
37.9104598384
 20
242.7917244201
 10
39.7773895443
 20
241.6237887822
 10
41.693665431
 20
240.7952221633
 10
43.6235909043
 20
240.321459192
 10
45.5312151042
 20
240.211325176
 10
47.3810026012
 20
240.4668717036
 10
49.1384953542
 20
241.0833384265
 10
50.7709545986
 20
242.0492417362
 10
52.2479707073
 20
243.3465886814
 10
53.5420296648
 20
244.9512121432
 10
54.6290256013
 20
246.8332210227
 10
55.4887098391
 20
248.9575570553
 10
56.1050680874
 20
251.2846478802
 10
56.4666187582
 20
253.7711441982
 10
56.5666268467
 20
256.3707272876
 10
56.4032293914
 20
259.034971834
 10
55.9794701777
 20
261.7142480026
 10
55.303243038
 20
264.3586459476
 10
54.3871448044
 20
266.9189055388
 10
53.2482406537
 20
269.3473339841
 10
51.9077462153
 20
271.5986942563
 10
50.3906323643
 20
273.6310477735
  0
LWPOLYLINE
  5
2FC
330
2DF
100
AcDbEntity
  8
0
  6
Continuous
 62
     7
370
    25
100
AcDbPolyline
 90
       23
 70
   128
 43
0.0
 10
50.3906323643
 20
273.6310477735
 10
46.2970722612
 20
278.3107279585
 10
42.0666278571
 20
282.718617127
 10
37.7118071012
 20
286.8416826875
 10
33.2454856802
 20
290.6677341728
 10
28.6808689493
 20
294.1854592825
 10
24.0314528886
 20
297.38445733
 10
19.3109842004
 20
300.2552699935
 10
14.5334196648
 20
302.7894092807
 10
9.7128848745
 20
304.9793826253
 10
4.86363247
 20
306.8187150398
 10
0.0
 20
308.3019682595
 10
-4.86363247
 20
309.4247568217
 10
-9.7128848745
 20
310.1837610321
 10
-14.5334196648
 20
310.5767367799
 10
-19.3109842004
 20
310.6025221729
 10
-24.0314528886
 20
310.2610409726
 10
-28.6808689493
 20
309.5533028198
 10
-33.2454856802
 20
308.4814002496
 10
-37.7118071012
 20
307.0485025041
 10
-42.0666278571
 20
305.2588461623
 10
-46.2970722612
 20
303.1177226141
 10
-50.3906323643
 20
300.6314624153
  0
LWPOLYLINE
  5
2FD
330
2DF
100
AcDbEntity
  8
0
  6
Continuous
 62
     7
370
    25
100
AcDbPolyline
 90
       24
 70
   128
 43
0.0
 10
-50.3906323643
 20
300.6314624153
 10
-51.9077462153
 20
299.4120120334
 10
-53.2482406537
 20
297.8789183112
 10
-54.3871448044
 20
296.0607398839
 10
-55.303243038
 20
293.9913459755
 10
-55.9794701777
 20
291.7092854791
 10
-56.4032293914
 20
289.2570688639
 10
-56.5666268467
 20
286.6803762857
 10
-56.4666187582
 20
284.0272066519
 10
-56.1050680874
 20
281.3469834928
 10
-55.4887098391
 20
278.6896342947
 10
-54.6290256013
 20
276.1046604453
 10
-53.5420296648
 20
273.6402151164
 10
-52.2479707073
 20
271.3422062615
 10
-50.7709545986
 20
269.2534414377
 10
-49.1384953542
 20
267.4128303815
 10
-47.3810026012
 20
265.8546601944
 10
-45.5312151042
 20
264.6079566386
 10
-43.6235909043
 20
263.6959434427
 10
-41.693665431
 20
263.1356096869
 10
-39.7773895443
 20
262.9373933288
 10
-37.9104598384
 20
263.1049867642
 10
-36.1276536811
 20
263.6352680445
 10
-34.4621813781
 20
264.5183590326
  0
LWPOLYLINE
  5
2FF
330
2DF
100
AcDbEntity
  8
0
  6
Continuous
 62
     7
370
    25
100
AcDbPolyline
 90
       28
 70
   128
 43
0.0
 10
-32.5108673666
 20
-72.3515368554
 10
-31.0345922828
 20
-70.4876336238
 10
-29.7608122788
 20
-68.3512423183
 10
-28.706753044
 20
-65.9712539663
 10
-27.8866689214
 20
-63.3798538276
 10
-27.3116501419
 20
-60.6120861434
 10
-26.9894728479
 20
-57.7053802236
 10
-26.9244939348
 20
-54.6990442794
 10
-27.1175921308
 20
-51.6337338471
 10
-27.5661561142
 20
-48.5509019918
 10
-28.2641198265
 20
-45.4922387258
 10
-29.2020445059
 20
-42.4991072227
 10
-30.3672463301
 20
-39.6119844514
 10
-31.7439679432
 20
-36.8699137946
 10
-33.3135915473
 20
-34.3099770539
 10
-35.0548906758
 20
-31.9667929822
 10
-36.944317245
 20
-29.8720491244
 10
-38.956320002
 20
-28.0540732977
 10
-41.063690061
 20
-26.5374505064
 10
-43.2379288571
 20
-25.342690472
 10
-45.4496335404
 20
-24.4859502744
 10
-47.6688945994
 20
-23.9788158551
 10
-49.8657003352
 20
-23.828145337
 10
-52.0103427188
 20
-24.0359762806
 10
-54.0738191412
 20
-24.5994981287
 10
-56.0282246236
 20
-25.5110902151
 10
-57.8471291845
 20
-26.7584248207
 10
-59.5059352601
 20
-28.3246338846
  0
LWPOLYLINE
  5
301
330
2DF
100
AcDbEntity
  8
0
  6
Continuous
 62
     7
370
    25
100
AcDbPolyline
 90
       28
 70
   128
 43
0.0
 10
-122.5174414067
 20
-97.2659247175
 10
-123.9937164905
 20
-99.1298279491
 10
-125.2674964945
 20
-101.2662192546
 10
-126.3215557293
 20
-103.6462076065
 10
-127.1416398519
 20
-106.2376077453
 10
-127.7166586314
 20
-109.0053754295
 10
-128.0388359254
 20
-111.9120813493
 10
-128.1038148385
 20
-114.9184172935
 10
-127.9107166425
 20
-117.9837277258
 10
-127.4621526591
 20
-121.0665595811
 10
-126.7641889468
 20
-124.1252228471
 10
-125.8262642674
 20
-127.1183543501
 10
-124.6610624432
 20
-130.0054771214
 10
-123.2843408301
 20
-132.7475477783
 10
-121.714717226
 20
-135.3074845189
 10
-119.9734180975
 20
-137.6506685906
 10
-118.0839915283
 20
-139.7454124484
 10
-116.0719887713
 20
-141.5633882751
 10
-113.9646187123
 20
-143.0800110664
 10
-111.7903799162
 20
-144.2747711008
 10
-109.5786752329
 20
-145.1315112984
 10
-107.3594141739
 20
-145.6386457178
 10
-105.1626084381
 20
-145.7893162358
 10
-103.0179660545
 20
-145.5814852923
 10
-100.9544896321
 20
-145.0179634442
 10
-99.0000841497
 20
-144.1063713578
 10
-97.1811795888
 20
-142.8590367522
 10
-95.5223735132
 20
-141.2928276882
  0
LWPOLYLINE
  5
303
330
2DF
100
AcDbEntity
  8
0
  6
Continuous
 62
     7
370
    25
100
AcDbPolyline
 90
       28
 70
   128
 43
0.0
 10
59.4940627548
 20
-60.235663904
 10
57.8357958634
 20
-57.7799488165
 10
56.017356503
 20
-55.5572243538
 10
54.0633359463
 20
-53.5975490511
 10
52.0001589695
 20
-51.9274241551
 10
49.8557265016
 20
-50.5694352399
 10
47.6590383131
 20
-49.5419467761
 10
45.4398008434
 20
-48.8588537824
 10
43.2280254722
 20
-48.5293939197
 10
41.053622667
 20
-48.5580225676
 10
38.9459974958
 20
-48.9443525726
 10
36.9336519733
 20
-49.6831594843
 10
35.0437996206
 20
-50.7644522064
 10
33.3019974487
 20
-52.1736081099
 10
31.731800344
 20
-53.8915707787
 10
30.3544425287
 20
-55.8951077146
 10
29.1885504044
 20
-58.1571245177
 10
28.2498906619
 20
-60.6470312913
 10
27.5511570642
 20
-63.3311563175
 10
27.1017987844
 20
-66.17320141
 10
26.9078926223
 20
-69.1347327843
 10
26.9720608262
 20
-72.1757008092
 10
27.2934356312
 20
-75.2549816087
 10
27.8676709944
 20
-78.3309331926
 10
28.6870013675
 20
-81.3619585924
 10
29.7403467129
 20
-84.3070683892
 10
31.0134623417
 20
-87.1264350254
 10
32.4891315491
 20
-89.7819314037
  0
LWPOLYLINE
  5
305
330
2DF
100
AcDbEntity
  8
0
  6
Continuous
 62
     7
370
    25
100
AcDbPolyline
 90
       28
 70
   128
 43
0.0
 10
95.4776233007
 20
-192.5113716688
 10
97.1358901921
 20
-194.9670867562
 10
98.9543295525
 20
-197.189811219
 10
100.9083501092
 20
-199.1494865217
 10
102.9715270861
 20
-200.8196114177
 10
105.1159595539
 20
-202.1776003328
 10
107.3126477424
 20
-203.2050887967
 10
109.5318852121
 20
-203.8881817904
 10
111.7436605834
 20
-204.217641653
 10
113.9180633885
 20
-204.1890130052
 10
116.0256885597
 20
-203.8026830001
 10
118.0380340822
 20
-203.0638760885
 10
119.9278864349
 20
-201.9825833663
 10
121.6696886068
 20
-200.5734274628
 10
123.2398857115
 20
-198.8554647941
 10
124.6172435268
 20
-196.8519278581
 10
125.7831356512
 20
-194.589911055
 10
126.7217953936
 20
-192.1000042815
 10
127.4205289913
 20
-189.4158792553
 10
127.8698872712
 20
-186.5738341628
 10
128.0637934332
 20
-183.6123027884
 10
127.9996252293
 20
-180.5713347636
 10
127.6782504243
 20
-177.492053964
 10
127.1040150611
 20
-174.4161023801
 10
126.284684688
 20
-171.3850769804
 10
125.2313393426
 20
-168.4399671835
 10
123.9582237138
 20
-165.6206005473
 10
122.4825545064
 20
-162.965104169
  0
LWPOLYLINE
  5
307
330
2DF
100
AcDbEntity
  8
0
  6
Continuous
 62
     7
370
    25
100
AcDbPolyline
 90
       28
 70
   128
 43
0.0
 10
32.5108673666
 20
72.3515368554
 10
31.0345922828
 20
70.4876336238
 10
29.7608122788
 20
68.3512423183
 10
28.706753044
 20
65.9712539663
 10
27.8866689214
 20
63.3798538276
 10
27.3116501419
 20
60.6120861434
 10
26.9894728479
 20
57.7053802236
 10
26.9244939348
 20
54.6990442794
 10
27.1175921308
 20
51.6337338471
 10
27.5661561142
 20
48.5509019918
 10
28.2641198265
 20
45.4922387258
 10
29.2020445059
 20
42.4991072227
 10
30.3672463301
 20
39.6119844514
 10
31.7439679432
 20
36.8699137946
 10
33.3135915473
 20
34.3099770539
 10
35.0548906758
 20
31.9667929822
 10
36.944317245
 20
29.8720491244
 10
38.956320002
 20
28.0540732977
 10
41.063690061
 20
26.5374505064
 10
43.2379288571
 20
25.342690472
 10
45.4496335404
 20
24.4859502744
 10
47.6688945994
 20
23.9788158551
 10
49.8657003352
 20
23.828145337
 10
52.0103427188
 20
24.0359762806
 10
54.0738191412
 20
24.5994981287
 10
56.0282246236
 20
25.5110902151
 10
57.8471291845
 20
26.7584248207
 10
59.5059352601
 20
28.3246338846
  0
LWPOLYLINE
  5
309
330
2DF
100
AcDbEntity
  8
0
  6
Continuous
 62
     7
370
    25
100
AcDbPolyline
 90
       28
 70
   128
 43
0.0
 10
122.5174414067
 20
97.2659247175
 10
123.9937164905
 20
99.1298279491
 10
125.2674964945
 20
101.2662192546
 10
126.3215557293
 20
103.6462076065
 10
127.1416398519
 20
106.2376077453
 10
127.7166586314
 20
109.0053754295
 10
128.0388359254
 20
111.9120813493
 10
128.1038148385
 20
114.9184172935
 10
127.9107166425
 20
117.9837277258
 10
127.4621526591
 20
121.0665595811
 10
126.7641889468
 20
124.1252228471
 10
125.8262642674
 20
127.1183543501
 10
124.6610624432
 20
130.0054771214
 10
123.2843408301
 20
132.7475477783
 10
121.714717226
 20
135.3074845189
 10
119.9734180975
 20
137.6506685906
 10
118.0839915283
 20
139.7454124484
 10
116.0719887713
 20
141.5633882751
 10
113.9646187123
 20
143.0800110664
 10
111.7903799162
 20
144.2747711008
 10
109.5786752329
 20
145.1315112984
 10
107.3594141739
 20
145.6386457178
 10
105.1626084381
 20
145.7893162358
 10
103.0179660545
 20
145.5814852923
 10
100.9544896321
 20
145.0179634442
 10
99.0000841497
 20
144.1063713578
 10
97.1811795888
 20
142.8590367522
 10
95.5223735132
 20
141.2928276882
  0
LWPOLYLINE
  5
30B
330
2DF
100
AcDbEntity
  8
0
  6
Continuous
 62
     7
370
    25
100
AcDbPolyline
 90
       28
 70
   128
 43
0.0
 10
-59.4940627548
 20
60.235663904
 10
-57.8357958634
 20
57.7799488165
 10
-56.017356503
 20
55.5572243538
 10
-54.0633359463
 20
53.5975490511
 10
-52.0001589695
 20
51.9274241551
 10
-49.8557265016
 20
50.5694352399
 10
-47.6590383131
 20
49.5419467761
 10
-45.4398008434
 20
48.8588537824
 10
-43.2280254722
 20
48.5293939197
 10
-41.053622667
 20
48.5580225676
 10
-38.9459974958
 20
48.9443525726
 10
-36.9336519733
 20
49.6831594843
 10
-35.0437996206
 20
50.7644522064
 10
-33.3019974487
 20
52.1736081099
 10
-31.731800344
 20
53.8915707787
 10
-30.3544425287
 20
55.8951077146
 10
-29.1885504044
 20
58.1571245177
 10
-28.2498906619
 20
60.6470312913
 10
-27.5511570642
 20
63.3311563175
 10
-27.1017987844
 20
66.17320141
 10
-26.9078926223
 20
69.1347327843
 10
-26.9720608262
 20
72.1757008092
 10
-27.2934356312
 20
75.2549816087
 10
-27.8676709944
 20
78.3309331926
 10
-28.6870013675
 20
81.3619585924
 10
-29.7403467129
 20
84.3070683892
 10
-31.0134623417
 20
87.1264350254
 10
-32.4891315491
 20
89.7819314037
  0
LWPOLYLINE
  5
30D
330
2DF
100
AcDbEntity
  8
0
  6
Continuous
 62
     7
370
    25
100
AcDbPolyline
 90
       28
 70
   128
 43
0.0
 10
-95.4776233007
 20
192.5113716688
 10
-97.1358901921
 20
194.9670867562
 10
-98.9543295525
 20
197.189811219
 10
-100.9083501092
 20
199.1494865217
 10
-102.9715270861
 20
200.8196114177
 10
-105.1159595539
 20
202.1776003328
 10
-107.3126477424
 20
203.2050887967
 10
-109.5318852121
 20
203.8881817904
 10
-111.7436605834
 20
204.217641653
 10
-113.9180633885
 20
204.1890130052
 10
-116.0256885597
 20
203.8026830001
 10
-118.0380340822
 20
203.0638760885
 10
-119.9278864349
 20
201.9825833663
 10
-121.6696886068
 20
200.5734274628
 10
-123.2398857115
 20
198.8554647941
 10
-124.6172435268
 20
196.8519278581
 10
-125.7831356512
 20
194.589911055
 10
-126.7217953936
 20
192.1000042815
 10
-127.4205289913
 20
189.4158792553
 10
-127.8698872712
 20
186.5738341628
 10
-128.0637934332
 20
183.6123027884
 10
-127.9996252293
 20
180.5713347636
 10
-127.6782504243
 20
177.492053964
 10
-127.1040150611
 20
174.4161023801
 10
-126.284684688
 20
171.3850769804
 10
-125.2313393426
 20
168.4399671835
 10
-123.9582237138
 20
165.6206005473
 10
-122.4825545064
 20
162.965104169
  0
LWPOLYLINE
  5
30E
330
2DF
100
AcDbEntity
  8
0
  6
Continuous
 62
     7
370
    25
100
AcDbPolyline
 90
       28
 70
   128
 43
0.0
 10
4.5961940777
 20
-140.9307005575
 10
4.4723030715
 20
-139.4533037109
 10
4.1073090491
 20
-137.989170171
 10
3.5208889327
 20
-136.6172317561
 10
2.7446567826
 20
-135.4114500213
 10
1.820459475
 20
-134.4368289718
 10
0.7981207258
 20
-133.7459106808
 10
-0.2672449183
 20
-133.3759427323
 10
-1.3182033197
 20
-133.3468701939
 10
-2.2980970389
 20
-133.660260374
 10
-3.1540997519
 20
-134.2992183266
 10
-3.8400641308
 20
-135.2292976632
 10
-4.3190096585
 20
-136.400357566
 10
-4.5651162576
 20
-137.7492658925
 10
-4.5651162576
 20
-139.2033026457
 10
-4.3190096585
 20
-140.6840803279
 10
-3.8400641308
 20
-142.111769831
 10
-3.1540997519
 20
-143.4094040442
 10
-2.2980970389
 20
-144.5070271713
 10
-1.3182033197
 20
-145.3454660653
 10
-0.2672449183
 20
-145.8795202686
 10
0.7981207258
 20
-146.0803987807
 10
1.820459475
 20
-145.937272189
 10
2.7446567826
 20
-145.4578564852
 10
3.5208889327
 20
-144.667997094
 10
4.1073090491
 20
-143.6102755395
 10
4.4723030715
 20
-142.3417138646
 10
4.5961940777
 20
-140.9307005575
  0
LWPOLYLINE
  5
30F
330
2DF
100
AcDbEntity
  8
0
  6
Continuous
 62
     7
370
    25
100
AcDbPolyline
 90
       28
 70
   128
 43
0.0
 10
-97.9342891943
 20
26.2376784319
 10
-98.0581802005
 20
27.7150752785
 10
-98.4231742229
 20
29.1792088184
 10
-99.0095943393
 20
30.5511472332
 10
-99.7858264894
 20
31.7569289681
 10
-100.7100237971
 20
32.7315500176
 10
-101.7323625463
 20
33.4224683085
 10
-102.7977281903
 20
33.7924362571
 10
-103.8486865917
 20
33.8215087954
 10
-104.8285803109
 20
33.5081186154
 10
-105.6845830239
 20
32.8691606628
 10
-106.3705474029
 20
31.9390813262
 10
-106.8494929306
 20
30.7680214234
 10
-107.0955995297
 20
29.4191130969
 10
-107.0955995297
 20
27.9650763436
 10
-106.8494929306
 20
26.4842986614
 10
-106.3705474029
 20
25.0566091584
 10
-105.6845830239
 20
23.7589749452
 10
-104.8285803109
 20
22.6613518181
 10
-103.8486865917
 20
21.822912924
 10
-102.7977281903
 20
21.2888587208
 10
-101.7323625463
 20
21.0879802087
 10
-100.7100237971
 20
21.2311068004
 10
-99.7858264894
 20
21.7105225042
 10
-99.0095943393
 20
22.5003818954
 10
-98.4231742229
 20
23.5581034499
 10
-98.0581802005
 20
24.8266651248
 10
-97.9342891943
 20
26.2376784319
  0
LWPOLYLINE
  5
310
330
2DF
100
AcDbEntity
  8
0
  6
Continuous
 62
     7
370
    25
100
AcDbPolyline
 90
       28
 70
   128
 43
0.0
 10
4.5961940777
 20
138.4679581776
 10
4.4723030715
 20
139.9453550243
 10
4.1073090491
 20
141.4094885641
 10
3.5208889327
 20
142.781426979
 10
2.7446567826
 20
143.9872087139
 10
1.820459475
 20
144.9618297634
 10
0.7981207258
 20
145.6527480543
 10
-0.2672449183
 20
146.0227160029
 10
-1.3182033197
 20
146.0517885412
 10
-2.2980970389
 20
145.7383983612
 10
-3.1540997519
 20
145.0994404086
 10
-3.8400641308
 20
144.169361072
 10
-4.3190096585
 20
142.9983011692
 10
-4.5651162576
 20
141.6493928427
 10
-4.5651162576
 20
140.1953560894
 10
-4.3190096585
 20
138.7145784072
 10
-3.8400641308
 20
137.2868889042
 10
-3.1540997519
 20
135.989254691
 10
-2.2980970389
 20
134.8916315639
 10
-1.3182033197
 20
134.0531926698
 10
-0.2672449183
 20
133.5191384666
 10
0.7981207258
 20
133.3182599545
 10
1.820459475
 20
133.4613865462
 10
2.7446567826
 20
133.94080225
 10
3.5208889327
 20
134.7306616412
 10
4.1073090491
 20
135.7883831957
 10
4.4723030715
 20
137.0569448706
 10
4.5961940777
 20
138.4679581776
  0
LWPOLYLINE
  5
311
330
2DF
100
AcDbEntity
  8
0
  6
Continuous
 62
     7
370
    25
100
AcDbPolyline
 90
       28
 70
   128
 43
0.0
 10
107.1266773498
 20
-28.7004208117
 10
107.0027863436
 20
-27.2230239651
 10
106.6377923212
 20
-25.7588904252
 10
106.0513722048
 20
-24.3869520103
 10
105.2751400547
 20
-23.1811702755
 10
104.350942747
 20
-22.206549226
 10
103.3286039979
 20
-21.5156309351
 10
102.2632383538
 20
-21.1456629865
 10
101.2122799524
 20
-21.1165904482
 10
100.2323862332
 20
-21.4299806282
 10
99.3763835202
 20
-22.0689385808
 10
98.6904191412
 20
-22.9990179174
 10
98.2114736135
 20
-24.1700778202
 10
97.9653670144
 20
-25.5189861467
 10
97.9653670144
 20
-26.9730228999
 10
98.2114736135
 20
-28.4538005821
 10
98.6904191412
 20
-29.8814900852
 10
99.3763835202
 20
-31.1791242984
 10
100.2323862332
 20
-32.2767474255
 10
101.2122799524
 20
-33.1151863195
 10
102.2632383538
 20
-33.6492405228
 10
103.3286039979
 20
-33.8501190349
 10
104.350942747
 20
-33.7069924432
 10
105.2751400547
 20
-33.2275767394
 10
106.0513722048
 20
-32.4377173482
 10
106.6377923212
 20
-31.3799957937
 10
107.0027863436
 20
-30.1114341188
 10
107.1266773498
 20
-28.7004208117
  0
LWPOLYLINE
  5
312
330
2DF
100
AcDbEntity
  8
0
  6
Continuous
 62
     7
370
    25
100
AcDbPolyline
 90
       42
 70
   128
 43
0.0
 10
10.6066017178
 20
-2.8416258229
 10
10.4822968405
 20
-0.6022884173
 10
10.1122958097
 20
1.6511661184
 10
9.5052711359
 20
3.8659187197
 10
8.6754509629
 20
5.9900574628
 10
7.6422855724
 20
7.9737943359
 10
6.4299914853
 20
9.7706322281
 10
5.0669838477
 20
11.3384547821
 10
3.5852104032
 20
12.640513566
 10
2.0194026655
 20
13.6462894255
 10
0.406261841
 20
14.3322078269
 10
-1.2164014168
 20
14.6821914243
 10
-2.8105532564
 20
14.6880368987
 10
-4.3388281097
 20
14.3496072373
 10
-5.7654045096
 20
13.6748349444
 10
-7.0568447143
 20
12.6795361106
 10
-8.18287846
 20
11.387039697
 10
-9.11711247
 20
9.8276407242
 10
-9.8376490911
 20
8.0378901823
 10
-10.3275995555
 20
6.0597383072
 10
-10.5754798396
 20
3.9395513021
 10
-10.5754798396
 20
1.7270245535
 10
-10.3275995555
 20
-0.5259821868
 10
-9.8376490911
 20
-2.7666603506
 10
-9.11711247
 20
-4.9424903406
 10
-8.18287846
 20
-7.002472546
 10
-7.0568447143
 20
-8.8983227301
 10
-5.7654045096
 20
-10.5856037712
 10
-4.3388281097
 20
-12.0247672318
 10
-2.8105532564
 20
-13.1820803403
 10
-1.2164014168
 20
-14.0304166581
 10
0.406261841
 20
-14.5498919012
 10
2.0194026655
 20
-14.72833001
 10
3.5852104032
 20
-14.5615485465
 10
5.0669838477
 20
-14.0534567269
 10
6.4299914853
 20
-13.2159637928
 10
7.6422855724
 20
-12.0686998687
 10
8.6754509629
 20
-10.6385558486
 10
9.5052711359
 20
-8.9590530963
 10
10.1122958097
 20
-7.0695577327
 10
10.4822968405
 20
-5.0143579277
 10
10.6066017178
 20
-2.8416258229
  0
LWPOLYLINE
  5
313
330
2DF
100
AcDbEntity
  8
0
  6
Continuous
 62
     7
370
    25
100
AcDbPolyline
 90
       42
 70
   128
 43
0.0
 10
10.6066017178
 20
-116.5279766186
 10
10.4822968405
 20
-114.288639213
 10
10.1122958097
 20
-112.0351846773
 10
9.5052711359
 20
-109.820432076
 10
8.6754509629
 20
-107.6962933329
 10
7.6422855724
 20
-105.7125564597
 10
6.4299914853
 20
-103.9157185676
 10
5.0669838477
 20
-102.3478960136
 10
3.5852104032
 20
-101.0458372297
 10
2.0194026655
 20
-100.0400613702
 10
0.406261841
 20
-99.3541429688
 10
-1.2164014168
 20
-99.0041593714
 10
-2.8105532564
 20
-98.9983138969
 10
-4.3388281097
 20
-99.3367435584
 10
-5.7654045096
 20
-100.0115158513
 10
-7.0568447143
 20
-101.0068146851
 10
-8.18287846
 20
-102.2993110986
 10
-9.11711247
 20
-103.8587100715
 10
-9.8376490911
 20
-105.6484606133
 10
-10.3275995555
 20
-107.6266124885
 10
-10.5754798396
 20
-109.7467994936
 10
-10.5754798396
 20
-111.9593262422
 10
-10.3275995555
 20
-114.2123329825
 10
-9.8376490911
 20
-116.4530111462
 10
-9.11711247
 20
-118.6288411362
 10
-8.18287846
 20
-120.6888233417
 10
-7.0568447143
 20
-122.5846735257
 10
-5.7654045096
 20
-124.2719545668
 10
-4.3388281097
 20
-125.7111180275
 10
-2.8105532564
 20
-126.8684311359
 10
-1.2164014168
 20
-127.7167674538
 10
0.406261841
 20
-128.2362426969
 10
2.0194026655
 20
-128.4146808057
 10
3.5852104032
 20
-128.2478993422
 10
5.0669838477
 20
-127.7398075226
 10
6.4299914853
 20
-126.9023145885
 10
7.6422855724
 20
-125.7550506644
 10
8.6754509629
 20
-124.3249066443
 10
9.5052711359
 20
-122.645403892
 10
10.1122958097
 20
-120.7559085284
 10
10.4822968405
 20
-118.7007087234
 10
10.6066017178
 20
-116.5279766186
  0
LWPOLYLINE
  5
314
330
2DF
100
AcDbEntity
  8
0
  6
Continuous
 62
     7
370
    25
100
AcDbPolyline
 90
       42
 70
   128
 43
0.0
 10
10.6066017178
 20
209.1159773555
 10
10.4822968405
 20
211.3553147611
 10
10.1122958097
 20
213.6087692968
 10
9.5052711359
 20
215.8235218981
 10
8.6754509629
 20
217.9476606412
 10
7.6422855724
 20
219.9313975143
 10
6.4299914853
 20
221.7282354065
 10
5.0669838477
 20
223.2960579605
 10
3.5852104032
 20
224.5981167444
 10
2.0194026655
 20
225.6038926039
 10
0.406261841
 20
226.2898110053
 10
-1.2164014168
 20
226.6397946027
 10
-2.8105532564
 20
226.6456400771
 10
-4.3388281097
 20
226.3072104157
 10
-5.7654045096
 20
225.6324381227
 10
-7.0568447143
 20
224.637139289
 10
-8.18287846
 20
223.3446428754
 10
-9.11711247
 20
221.7852439026
 10
-9.8376490911
 20
219.9954933607
 10
-10.3275995555
 20
218.0173414856
 10
-10.5754798396
 20
215.8971544805
 10
-10.5754798396
 20
213.6846277319
 10
-10.3275995555
 20
211.4316209916
 10
-9.8376490911
 20
209.1909428278
 10
-9.11711247
 20
207.0151128378
 10
-8.18287846
 20
204.9551306324
 10
-7.0568447143
 20
203.0592804483
 10
-5.7654045096
 20
201.3719994072
 10
-4.3388281097
 20
199.9328359466
 10
-2.8105532564
 20
198.7755228381
 10
-1.2164014168
 20
197.9271865203
 10
0.406261841
 20
197.4077112772
 10
2.0194026655
 20
197.2292731684
 10
3.5852104032
 20
197.3960546319
 10
5.0669838477
 20
197.9041464515
 10
6.4299914853
 20
198.7416393856
 10
7.6422855724
 20
199.8889033097
 10
8.6754509629
 20
201.3190473298
 10
9.5052711359
 20
202.9985500821
 10
10.1122958097
 20
204.8880454457
 10
10.4822968405
 20
206.9432452506
 10
10.6066017178
 20
209.1159773555
  0
LWPOLYLINE
  5
31E
330
2DF
100
AcDbEntity
  8
0
  6
Continuous
 62
     7
370
    25
100
AcDbPolyline
 90
       10
 70
   128
 43
0.0
 10
104.3879231485
 20
-33.694902519
 10
104.2022399823
 20
-33.7267879347
 10
103.1512815809
 20
-33.6977153963
 10
102.0859159368
 20
-33.3277474478
 10
101.0635771877
 20
-32.6368291568
 10
100.13937988
 20
-31.6622081074
 10
99.3631477299
 20
-30.4564263725
 10
98.7767276135
 20
-29.0844879576
 10
98.4117335911
 20
-27.6203544178
 10
98.2878425849
 20
-26.1429575711
  0
LWPOLYLINE
  5
320
330
2DF
100
AcDbEntity
  8
0
  6
Continuous
 62
     7
370
    25
100
AcDbPolyline
 90
       16
 70
   128
 43
0.0
 10
40.1190356276
 20
247.5682942796
 10
36.6843067342
 20
251.4550180233
 10
33.1125547603
 20
255.0610751387
 10
29.419553236
 20
258.3705405977
 10
25.6216111525
 20
261.3687991768
 10
21.7355009381
 20
264.0426100008
 10
17.7783843882
 20
266.3801650169
 10
13.7677368757
 20
268.3711411415
 10
9.7212701761
 20
270.0067458486
 10
5.6568542495
 20
271.2797559993
 10
1.5924383229
 20
272.1845497408
 10
-2.4540283767
 20
272.7171313334
 10
-6.4646758892
 20
272.8751487963
 10
-10.4217924391
 20
272.6579042947
 10
-14.3079026535
 20
272.0663572211
 10
-16.7390065806
 20
271.4953665907
  0
LWPOLYLINE
  5
322
330
2DF
100
AcDbEntity
  8
0
  6
Continuous
 62
     7
370
    25
100
AcDbPolyline
 90
       10
 70
   128
 43
0.0
 10
118.7065987526
 20
-202.7281312217
 10
117.4005148329
 20
-202.7021078808
 10
115.1887394616
 20
-202.3726480181
 10
112.9695019919
 20
-201.6895550245
 10
110.7728138034
 20
-200.6620665606
 10
108.6283813356
 20
-199.3040776454
 10
106.5652043587
 20
-197.6339527494
 10
104.611183802
 20
-195.6742774467
 10
102.7927444416
 20
-193.451552984
 10
101.1344775502
 20
-190.9958378966
  0
LWPOLYLINE
  5
323
330
2DF
100
AcDbEntity
  8
0
  6
Continuous
 62
     7
370
    25
100
AcDbPolyline
 90
       24
 70
   128
 43
0.0
 10
55.7349111624
 20
25.3481920672
 10
55.5225545847
 20
25.3436791093
 10
53.3257488489
 20
25.4943496273
 10
51.1064877899
 20
26.0014840467
 10
48.8947831066
 20
26.8582242443
 10
46.7205443105
 20
28.0529842786
 10
44.6131742515
 20
29.56960707
 10
42.6011714945
 20
31.3875828967
 10
40.7117449253
 20
33.4823267545
 10
38.9704457968
 20
35.8255108261
 10
37.4008221927
 20
38.3854475668
 10
36.0241005796
 20
41.1275182237
 10
34.8588987554
 20
44.0146409949
 10
33.920974076
 20
47.007772498
 10
33.2230103637
 20
50.066435764
 10
32.7744463803
 20
53.1492676193
 10
32.5813481843
 20
56.2145780516
 10
32.6463270974
 20
59.2209139958
 10
32.9685043913
 20
62.1276199156
 10
33.5435231709
 20
64.8953875998
 10
34.3636072935
 20
67.4867877386
 10
35.4176665283
 20
69.8667760905
 10
36.6914465323
 20
72.003167396
 10
38.1677216161
 20
73.8670706276
  0
LWPOLYLINE
  5
324
330
2DF
100
AcDbEntity
  8
0
  6
Continuous
 62
     7
370
    25
100
AcDbPolyline
 90
       19
 70
   128
 43
0.0
 10
-0.8905665748
 20
226.5968194247
 10
-1.3999904648
 20
226.1526730612
 10
-2.5260242105
 20
224.8601766477
 10
-3.4602582205
 20
223.3007776749
 10
-4.1807948416
 20
221.511027133
 10
-4.670745306
 20
219.5328752578
 10
-4.9186255901
 20
217.4126882527
 10
-4.9186255901
 20
215.2001615042
 10
-4.670745306
 20
212.9471547638
 10
-4.1807948416
 20
210.7064766001
 10
-3.4602582205
 20
208.5306466101
 10
-2.5260242105
 20
206.4706644046
 10
-1.3999904648
 20
204.5748142206
 10
-0.1085502601
 20
202.8875331795
 10
1.3180261398
 20
201.4483697188
 10
2.8463009931
 20
200.2910566104
 10
4.4404528327
 20
199.4427202925
 10
6.0631160904
 20
198.9232450494
 10
6.5474208243
 20
198.8339207044
  0
LWPOLYLINE
  5
327
330
2DF
100
AcDbEntity
  8
0
  6
Continuous
 62
     7
370
    25
100
AcDbPolyline
 90
       10
 70
   128
 43
0.0
 10
-4.2426406871
 20
141.0254214183
 10
-4.1187496809
 20
139.5480245716
 10
-3.7537556585
 20
138.0838910318
 10
-3.1673355421
 20
136.7119526169
 10
-2.391103392
 20
135.506170882
 10
-1.4669060844
 20
134.5315498326
 10
-0.4445673352
 20
133.8406315416
 10
0.6207983089
 20
133.470663593
 10
1.6717567102
 20
133.4415910547
 10
1.8574398775
 20
133.4734764706
  0
LWPOLYLINE
  5
32A
330
2DF
100
AcDbEntity
  8
0
  6
Continuous
 62
     7
370
    25
100
AcDbPolyline
 90
       17
 70
   128
 43
0.0
 10
38.1459857986
 20
-88.2663976315
 10
36.6703165912
 20
-85.6109012532
 10
35.3972009624
 20
-82.791534617
 10
34.343855617
 20
-79.8464248202
 10
33.5245252439
 20
-76.8153994204
 10
32.9502898807
 20
-73.7394478365
 10
32.6289150757
 20
-70.6601670369
 10
32.5647468718
 20
-67.6191990121
 10
32.7586530338
 20
-64.6576676377
 10
33.2080113137
 20
-61.8156225453
 10
33.9067449114
 20
-59.131497519
 10
34.8454046539
 20
-56.6415907455
 10
36.0112967782
 20
-54.3795739424
 10
37.3886545935
 20
-52.3760370064
 10
38.9588516982
 20
-50.6580743377
 10
40.7006538701
 20
-49.2489184342
 10
41.9219415524
 20
-48.5033705788
  0
LWPOLYLINE
  5
32B
330
2DF
100
AcDbEntity
  8
0
  6
Continuous
 62
     7
370
    25
100
AcDbPolyline
 90
       21
 70
   128
 43
0.0
 10
-34.543221817
 20
264.4653785784
 10
-36.0368111815
 20
264.6511434591
 10
-37.9667366548
 20
265.211477215
 10
-39.8743608547
 20
266.1234904109
 10
-41.7241483517
 20
267.3701939666
 10
-43.4816411048
 20
268.9283641538
 10
-45.1141003491
 20
270.76897521
 10
-46.5911164578
 20
272.8577400338
 10
-47.8851754154
 20
275.1557488886
 10
-48.9721713518
 20
277.6201942175
 10
-49.8318555896
 20
280.205168067
 10
-50.4482138379
 20
282.862517265
 10
-50.8097645087
 20
285.5427404241
 10
-50.9097725972
 20
288.1959100579
 10
-50.7463751419
 20
290.7726026361
 10
-50.3226159282
 20
293.2248192513
 10
-49.6463887885
 20
295.5068797477
 10
-48.7302905549
 20
297.5762736561
 10
-47.5913864042
 20
299.3944520834
 10
-46.2508919658
 20
300.9275458057
 10
-44.7337781148
 20
302.1469961876
  0
LWPOLYLINE
  5
32D
330
2DF
100
AcDbEntity
  8
0
  6
Continuous
 62
     7
370
    25
100
AcDbPolyline
 90
       12
 70
   128
 43
0.0
 10
6.5474208243
 20
-13.123682474
 10
5.2505924085
 20
-12.8166740547
 10
3.637451584
 20
-12.1307556532
 10
2.0716438463
 20
-11.1249797937
 10
0.5898704018
 20
-9.8229210098
 10
-0.7731372358
 20
-8.2550984559
 10
-1.9854313229
 20
-6.4582605637
 10
-3.0185967135
 20
-4.4745236906
 10
-3.8484168864
 20
-2.3503849474
 10
-4.4554415602
 20
-0.1356323461
 10
-4.825442591
 20
2.1178221895
 10
-4.9497474683
 20
4.3571595952
  0
LWPOLYLINE
  5
32F
330
2DF
100
AcDbEntity
  8
0
  6
Continuous
 62
     7
370
    25
100
AcDbPolyline
 90
       10
 70
   128
 43
0.0
 10
-36.2650873029
 20
50.0189043511
 10
-37.5711712227
 20
50.044927692
 10
-39.7829465939
 20
50.3743875546
 10
-42.0021840636
 20
51.0574805483
 10
-44.1988722521
 20
52.0849690121
 10
-46.34330472
 20
53.4429579273
 10
-48.4064816969
 20
55.1130828233
 10
-50.3605022535
 20
57.072758126
 10
-52.1789416139
 20
59.2954825887
 10
-53.8372085053
 20
61.7511976762
  0
SPLINE
  5
331
330
2DF
100
AcDbEntity
  8
0
  6
Continuous
 62
     7
370
    25
100
AcDbSpline
210
0.0
220
0.0
230
1.0
 70
     8
 71
     3
 72
    11
 73
     7
 74
     0
 42
0.000000001
 43
0.00000001
 40
0.0
 40
0.0
 40
0.0
 40
0.0
 40
0.4277198428030498
 40
0.7119429482110782
 40
0.9972511462595459
 40
1.0
 40
1.0
 40
1.0
 40
1.0
 10
1.917764037900116
 20
-124.6929676413669
 30
0.0
 10
2.137766970901306
 20
-125.2598175543049
 30
0.0
 10
2.503963534777049
 20
-126.2033435678879
 30
0.0
 10
3.944835040739735
 20
-126.973668698553
 30
0.0
 10
5.073047065311469
 20
-127.2620413846382
 30
0.0
 10
5.755026794810029
 20
-127.1920819002
 30
0.0
 10
5.761534750503888
 20
-127.1914142949832
 30
0.0
  0
LWPOLYLINE
  5
332
330
2DF
100
AcDbEntity
  8
0
  6
Continuous
 62
     7
370
    25
100
AcDbPolyline
 90
       15
 70
   128
 43
0.0
 10
-0.8905665748
 20
-99.0471345494
 10
-1.7464738849
 20
-99.8384799456
 10
-2.8272374478
 20
-101.2246813859
 10
-3.7058390106
 20
-102.8717112982
 10
-4.3613429379
 20
-104.7403236593
 10
-4.7781296455
 20
-106.785992499
 10
-4.9462677893
 20
-108.9599728817
 10
-4.8617509129
 20
-111.2104624179
 10
-4.5265929148
 20
-113.4838356304
 10
-3.948780061
 20
-115.7259217614
 10
-3.1420806847
 20
-117.8832955732
 10
-2.1257171099
 20
-119.9045503836
 10
-0.9239076148
 20
-121.7415230032
 10
0.43471065
 20
-123.3504413851
 10
1.9177640379
 20
-124.6929676414
  0
LWPOLYLINE
  5
335
330
2DF
100
AcDbEntity
  8
0
  6
Continuous
 62
     7
370
    25
100
AcDbPolyline
 90
       15
 70
   128
 43
0.0
 10
-1.5038864856
 20
-133.3787556096
 10
-1.9445436483
 20
-133.5655395132
 10
-2.8005463613
 20
-134.2044974658
 10
-3.4865107402
 20
-135.1345768024
 10
-3.9654562679
 20
-136.3056367052
 10
-4.211562867
 20
-137.6545450317
 10
-4.211562867
 20
-139.108581785
 10
-3.9654562679
 20
-140.5893594672
 10
-3.4865107402
 20
-142.0170489702
 10
-2.8005463613
 20
-143.3146831834
 10
-1.9445436483
 20
-144.4123063105
 10
-0.9646499291
 20
-145.2507452046
 10
0.0863084723
 20
-145.7847994078
 10
1.1516741164
 20
-145.9856779199
 10
1.8574398769
 20
-145.9251822647
  0
LWPOLYLINE
  5
338
330
2DF
100
AcDbEntity
  8
0
  6
Continuous
 62
     7
370
    25
100
AcDbPolyline
 90
       19
 70
   128
 43
0.0
 10
35.556778849
 20
-307.7889366243
 10
34.3377231988
 20
-308.0377690476
 10
29.6883071381
 20
-308.7455072003
 10
24.9678384499
 20
-309.0869884006
 10
20.1902739143
 20
-309.0612030077
 10
15.3697391239
 20
-308.6682272599
 10
10.5204867195
 20
-307.9092230494
 10
5.6568542495
 20
-306.7864344872
 10
0.7932217795
 20
-305.3031812676
 10
-4.056030625
 20
-303.4638488531
 10
-8.8765654153
 20
-301.2738755084
 10
-13.6541299509
 20
-298.7397362212
 10
-18.3745986391
 20
-295.8689235578
 10
-23.0240146998
 20
-292.6699255103
 10
-27.5886314307
 20
-289.1522004006
 10
-32.0549528518
 20
-285.3261489153
 10
-36.4097736076
 20
-281.2030833547
 10
-40.6402180117
 20
-276.7951941862
 10
-44.7337781148
 20
-272.1155140012
  0
LWPOLYLINE
  5
33C
330
2DF
100
AcDbEntity
  8
0
  6
Continuous
 62
     7
370
    25
100
AcDbPolyline
 90
       17
 70
   128
 43
0.0
 10
-116.8257002569
 20
164.4806379412
 10
-118.3013694643
 20
167.1361343196
 10
-119.5744850931
 20
169.9555009558
 10
-120.6278304385
 20
172.9006107526
 10
-121.4471608116
 20
175.9316361524
 10
-122.0213961748
 20
179.0075877363
 10
-122.3427709798
 20
182.0868685358
 10
-122.4069391837
 20
185.1278365607
 10
-122.2130330217
 20
188.089367935
 10
-121.7636747418
 20
190.9314130275
 10
-121.0649411441
 20
193.6155380537
 10
-120.1262814017
 20
196.1054448272
 10
-118.9603892773
 20
198.3674616304
 10
-117.583031462
 20
200.3709985663
 10
-116.0128343573
 20
202.088961235
 10
-114.2710321854
 20
203.4981171386
 10
-113.0497445031
 20
204.2436649939
  0
LWPOLYLINE
  5
33F
330
2DF
100
AcDbEntity
  8
0
  6
Continuous
 62
     7
370
    25
100
AcDbPolyline
 90
       10
 70
   128
 43
0.0
 10
-106.7731239592
 20
28.7951416725
 10
-106.649232953
 20
27.3177448258
 10
-106.2842389306
 20
25.853611286
 10
-105.6978188142
 20
24.4816728711
 10
-104.9215866641
 20
23.2758911362
 10
-103.9973893564
 20
22.3012700868
 10
-102.9750506072
 20
21.6103517958
 10
-101.9096849632
 20
21.2403838473
 10
-100.8587265618
 20
21.2113113089
 10
-100.6730433955
 20
21.2431967246
  0
LWPOLYLINE
  5
342
330
2DF
100
AcDbEntity
  8
0
  6
Continuous
 62
     7
370
    25
100
AcDbPolyline
 90
       16
 70
   128
 43
0.0
 10
-44.7337781148
 20
-272.1155140012
 10
-46.2508919658
 20
-270.0831604841
 10
-47.5913864042
 20
-267.8318002118
 10
-48.7302905549
 20
-265.4033717665
 10
-49.6463887885
 20
-262.8431121754
 10
-50.3226159282
 20
-260.1987142304
 10
-50.7463751419
 20
-257.5194380618
 10
-50.9097725972
 20
-254.8551935153
 10
-50.8097645087
 20
-252.2556104259
 10
-50.4482138379
 20
-249.7691141079
 10
-49.8318555896
 20
-247.4420232831
 10
-48.9721713518
 20
-245.3176872505
 10
-47.8851754154
 20
-243.435678371
 10
-46.5911164578
 20
-241.8310549091
 10
-45.1141003491
 20
-240.5337079639
 10
-44.6527376759
 20
-240.2168382227
  0
LWPOLYLINE
  5
343
330
2DF
100
AcDbEntity
  8
0
  6
Continuous
 62
     7
370
    25
100
AcDbPolyline
 90
       24
 70
   128
 43
0.0
 10
-99.2933976109
 20
-144.2692695056
 10
-99.5057541886
 20
-144.2737824636
 10
-101.7025599244
 20
-144.1231119455
 10
-103.9218209834
 20
-143.6159775262
 10
-106.1335256667
 20
-142.7592373286
 10
-108.3077644628
 20
-141.5644772942
 10
-110.4151345218
 20
-140.0478545029
 10
-112.4271372788
 20
-138.2298786762
 10
-114.316563848
 20
-136.1351348184
 10
-116.0578629765
 20
-133.7919507467
 10
-117.6274865806
 20
-131.232014006
 10
-119.0042081937
 20
-128.4899433492
 10
-120.1694100179
 20
-125.6028205779
 10
-121.1073346973
 20
-122.6096890748
 10
-121.8052984096
 20
-119.5510258088
 10
-122.253862393
 20
-116.4681939536
 10
-122.446960589
 20
-113.4028835213
 10
-122.3819816759
 20
-110.396547577
 10
-122.059804382
 20
-107.4898416573
 10
-121.4847856024
 20
-104.7220739731
 10
-120.6647014798
 20
-102.1306738343
 10
-119.610642245
 20
-99.7506854823
 10
-118.336862241
 20
-97.6142941768
 10
-116.8605871572
 20
-95.7503909452
  0
LINE
  5
344
330
2DF
100
AcDbEntity
  8
0
  6
Continuous
 62
     7
370
    25
100
AcDbLine
 10
90.5746350357
 20
-338.0772626015
 30
0.0
 11
96.2314892852
 21
-336.5617288293
 31
0.0
  0
LINE
  5
345
330
2DF
100
AcDbEntity
  8
0
  6
Continuous
 62
     7
370
    25
100
AcDbLine
 10
-84.9177807862
 20
339.5927963738
 30
0.0
 11
-90.5746350357
 21
338.0772626015
 31
0.0
  0
LINE
  5
346
330
2DF
100
AcDbEntity
  8
0
  6
Continuous
 62
     7
370
    25
100
AcDbLine
 10
-16.7390065806
 20
271.4953665907
 30
0.0
 11
-22.3958608301
 21
269.9798328184
 31
0.0
  0
LINE
  5
347
330
2DF
100
AcDbEntity
  8
0
  6
Continuous
 62
     7
370
    25
100
AcDbLine
 10
22.3958608301
 20
-269.9798328184
 30
0.0
 11
28.0527150796
 21
-268.4642990462
 31
0.0
  0
LINE
  5
348
330
2DF
100
AcDbEntity
  8
0
  6
Continuous
 62
     7
370
    25
100
AcDbLine
 10
-95.5223735132
 20
-141.2928276882
 30
0.0
 11
-32.5108673666
 21
-72.3515368554
 31
0.0
  0
LINE
  5
349
330
2DF
100
AcDbEntity
  8
0
  6
Continuous
 62
     7
370
    25
100
AcDbLine
 10
-59.5059352601
 20
-28.3246338846
 30
0.0
 11
-122.5174414067
 21
-97.2659247175
 31
0.0
  0
LINE
  5
34A
330
2DF
100
AcDbEntity
  8
0
  6
Continuous
 62
     7
370
    25
100
AcDbLine
 10
122.4825545064
 20
-162.965104169
 30
0.0
 11
59.4940627548
 21
-60.235663904
 31
0.0
  0
LINE
  5
34B
330
2DF
100
AcDbEntity
  8
0
  6
Continuous
 62
     7
370
    25
100
AcDbLine
 10
32.4891315491
 20
-89.7819314037
 30
0.0
 11
95.4776233007
 21
-192.5113716688
 31
0.0
  0
LINE
  5
34C
330
2DF
100
AcDbEntity
  8
0
  6
Continuous
 62
     7
370
    25
100
AcDbLine
 10
95.5223735132
 20
141.2928276882
 30
0.0
 11
32.5108673666
 21
72.3515368554
 31
0.0
  0
LINE
  5
34D
330
2DF
100
AcDbEntity
  8
0
  6
Continuous
 62
     7
370
    25
100
AcDbLine
 10
59.5059352601
 20
28.3246338846
 30
0.0
 11
122.5174414067
 21
97.2659247175
 31
0.0
  0
LINE
  5
34E
330
2DF
100
AcDbEntity
  8
0
  6
Continuous
 62
     7
370
    25
100
AcDbLine
 10
-122.4825545064
 20
162.965104169
 30
0.0
 11
-59.4940627548
 21
60.235663904
 31
0.0
  0
LINE
  5
34F
330
2DF
100
AcDbEntity
  8
0
  6
Continuous
 62
     7
370
    25
100
AcDbLine
 10
-32.4891315491
 20
89.7819314037
 30
0.0
 11
-95.4776233007
 21
192.5113716688
 31
0.0
  0
LINE
  5
350
330
2DF
100
AcDbEntity
  8
0
  6
Continuous
 62
     7
370
    25
100
AcDbLine
 10
95.5223735132
 20
141.2928276882
 30
0.0
 11
101.1792277627
 21
142.8083614605
 31
0.0
  0
LINE
  5
351
330
2DF
100
AcDbEntity
  8
0
  6
Continuous
 62
     7
370
    25
100
AcDbLine
 10
32.5108673666
 20
72.3515368554
 30
0.0
 11
38.1677216161
 21
73.8670706276
 31
0.0
  0
LINE
  5
352
330
2DF
100
AcDbEntity
  8
0
  6
Continuous
 62
     7
370
    25
100
AcDbLine
 10
38.1677216161
 20
73.8670706276
 30
0.0
 11
101.1792277627
 21
142.8083614605
 31
0.0
  0
LINE
  5
353
330
2DF
100
AcDbEntity
  8
0
  6
Continuous
 62
     7
370
    25
100
AcDbLine
 10
34.4621813781
 20
246.0527605074
 30
0.0
 11
40.1190356276
 21
247.5682942796
 31
0.0
  0
LINE
  5
354
330
2DF
100
AcDbEntity
  8
0
  6
Continuous
 62
     7
370
    25
100
AcDbLine
 10
-50.3906323643
 20
300.6314624153
 30
0.0
 11
-44.7337781148
 21
302.1469961876
 31
0.0
  0
LINE
  5
355
330
2DF
100
AcDbEntity
  8
0
  6
Continuous
 62
     7
370
    25
100
AcDbLine
 10
95.4776233007
 20
-192.5113716688
 30
0.0
 11
101.1344775502
 21
-190.9958378966
 31
0.0
  0
LINE
  5
356
330
2DF
100
AcDbEntity
  8
0
  6
Continuous
 62
     7
370
    25
100
AcDbLine
 10
32.4891315491
 20
-89.7819314037
 30
0.0
 11
38.1459857986
 21
-88.2663976315
 31
0.0
  0
LINE
  5
357
330
2DF
100
AcDbEntity
  8
0
  6
Continuous
 62
     7
370
    25
100
AcDbLine
 10
101.1344775502
 20
-190.9958378966
 30
0.0
 11
38.1459857986
 21
-88.2663976315
 31
0.0
  0
LINE
  5
358
330
2DF
100
AcDbEntity
  8
0
  6
Continuous
 62
     7
370
    25
100
AcDbLine
 10
-59.4940627548
 20
60.235663904
 30
0.0
 11
-53.8372085053
 21
61.7511976762
 31
0.0
  0
LINE
  5
359
330
2DF
100
AcDbEntity
  8
0
  6
Continuous
 62
     7
370
    25
100
AcDbLine
 10
34.4621813781
 20
-264.5183590326
 30
0.0
 11
40.1190356276
 21
-263.0028252604
 31
0.0
  0
LINE
  5
35A
330
2DF
100
AcDbEntity
  8
0
  6
Continuous
 62
     7
370
    25
100
AcDbLine
 10
-122.4825545064
 20
162.965104169
 30
0.0
 11
-116.8257002569
 21
164.4806379412
 31
0.0
  0
LINE
  5
35B
330
2DF
100
AcDbEntity
  8
0
  6
Continuous
 62
     7
370
    25
100
AcDbLine
 10
-53.8372085053
 20
61.7511976762
 30
0.0
 11
-116.8257002569
 21
164.4806379412
 31
0.0
  0
LINE
  5
35C
330
2DF
100
AcDbEntity
  8
0
  6
Continuous
 62
     7
370
    25
100
AcDbLine
 10
-50.3906323643
 20
-273.6310477735
 30
0.0
 11
-44.7337781148
 21
-272.1155140012
 31
0.0
  0
LINE
  5
35D
330
2DF
100
AcDbEntity
  8
0
  6
Continuous
 62
     7
370
    25
100
AcDbLine
 10
-59.5059352601
 20
-28.3246338846
 30
0.0
 11
-53.8490810106
 21
-26.8091001124
 31
0.0
  0
LINE
  5
35E
330
2DF
100
AcDbEntity
  8
0
  6
Continuous
 62
     7
370
    25
100
AcDbLine
 10
-122.5174414067
 20
-97.2659247175
 30
0.0
 11
-116.8605871572
 21
-95.7503909452
 31
0.0
  0
LINE
  5
35F
330
2DF
100
AcDbEntity
  8
0
  6
Continuous
 62
     7
370
    25
100
AcDbLine
 10
-116.8605871572
 20
-95.7503909452
 30
0.0
 11
-53.8490810106
 21
-26.8091001124
 31
0.0
  0
ARC
  5
360
330
2DF
100
AcDbEntity
  8
0
  6
Continuous
 62
     7
370
    25
100
AcDbCircle
 10
111.7037351674
 20
133.3513458534
 30
0.0
 40
14.14921907052878
100
AcDbArc
 50
118.5094900408
 51
138.0580594627
  0
ARC
  5
361
330
2DF
100
AcDbEntity
  8
0
  6
Continuous
 62
     7
370
    25
100
AcDbCircle
 10
51.8905956872
 20
256.308306522
 30
0.0
 40
14.66142695080562
100
AcDbArc
 50
216.5927220217
 51
263.8095162854
  0
ARC
  5
362
330
2DF
100
AcDbEntity
  8
0
  6
Continuous
 62
     7
370
    25
100
AcDbCircle
 10
-11.2824088353
 20
251.769394024
 30
0.0
 40
60.47228213344655
100
AcDbArc
 50
107.9308282092
 51
123.5846667756
  0
ARC
  5
363
330
2DF
100
AcDbEntity
  8
0
  6
Continuous
 62
     7
370
    25
100
AcDbCircle
 10
103.1398627086
 20
-25.5554450477
 30
0.0
 40
4.887460510929375
100
AcDbArc
 50
115.6190307476
 51
186.9041149135
  0
ARC
  5
364
330
2DF
100
AcDbEntity
  8
0
  6
Continuous
 62
     7
370
    25
100
AcDbCircle
 10
118.6076949967
 20
-23.1617869176
 30
0.0
 40
20.32624680477103
100
AcDbArc
 50
185.2279798316
 51
204.7679423166
  0
ARC
  5
365
330
2DF
100
AcDbEntity
  8
0
  6
Continuous
 62
     7
370
    25
100
AcDbCircle
 10
0.7407782215
 20
141.5408806244
 30
0.0
 40
5.01000620879547
100
AcDbArc
 50
116.6177654151
 51
185.9053802264
  0
ARC
  5
366
330
2DF
100
AcDbEntity
  8
0
  6
Continuous
 62
     7
370
    25
100
AcDbCircle
 10
16.0772117247
 20
144.0065920718
 30
0.0
 40
20.32624680477061
100
AcDbArc
 50
185.2279798315
 51
204.7679423166
  0
ARC
  5
367
330
2DF
100
AcDbEntity
  8
0
  6
Continuous
 62
     7
370
    25
100
AcDbCircle
 10
8.0291244015
 20
5.175598048
 30
0.0
 40
13.00465134145892
100
AcDbArc
 50
133.3052210996
 51
183.6082535624
  0
ARC
  5
368
330
2DF
100
AcDbEntity
  8
0
  6
Continuous
 62
     7
370
    25
100
AcDbCircle
 10
16.0738189864
 20
-135.3929756154
 30
0.0
 40
20.32278536622655
100
AcDbArc
 50
185.2262994563
 51
204.7696226918
  0
ARC
  5
369
330
2DF
100
AcDbEntity
  8
0
  6
Continuous
 62
     7
370
    25
100
AcDbCircle
 10
-43.3245736059
 20
-36.2661157195
 30
0.0
 40
14.14921907052773
100
AcDbArc
 50
118.5094900408
 51
138.0580594627
  0
ARC
  5
36A
330
2DF
100
AcDbEntity
  8
0
  6
Continuous
 62
     7
370
    25
100
AcDbCircle
 10
17.3589722399
 20
-228.7779375982
 30
0.0
 40
41.10186639197512
100
AcDbArc
 50
285.0805397579
 51
303.6245017272
  0
ARC
  5
36B
330
2DF
100
AcDbEntity
  8
0
  6
Continuous
 62
     7
370
    25
100
AcDbCircle
 10
-101.7897050499
 20
29.3106008785
 30
0.0
 40
5.01000620938036
100
AcDbArc
 50
116.6177654372
 51
185.9053802243
  0
ARC
  5
36C
330
2DF
100
AcDbEntity
  8
0
  6
Continuous
 62
     7
370
    25
100
AcDbCircle
 10
-86.4532715474
 20
31.776312326
 30
0.0
 40
20.32624680476999
100
AcDbArc
 50
185.2279798315
 51
204.7679423166
  0
VIEWPORT
  5
381
330
2DF
100
AcDbEntity
  8
0
100
AcDbViewport
 10
0.0
 20
0.0
 30
0.0
 40
205.6
 41
156.0
 68
     1
 69
     1
 12
0.0
 22
0.0000000001
 13
0.0
 23
0.0
 14
10.0
 24
10.0
 15
10.0
 25
10.0
 16
0.0
 26
0.0
 36
1.0
 17
0.0
 27
0.0
 37
0.0
 42
50.0
 43
0.0
 44
0.0
 45
714.0
 50
0.0
 51
0.0
 72
   100
 90
   557152
  1

281
     0
 71
     1
 74
     0
110
0.0
120
0.0
130
0.0
111
1.0
121
0.0
131
0.0
112
0.0
122
1.0
132
0.0
 79
     0
146
0.0
  0
ENDBLK
  5
2E2
330
2DF
100
AcDbEntity
  8
0
100
AcDbBlockEnd
  0
ENDSEC
  0
SECTION
  2
ENTITIES
  0
CIRCLE
  5
8A
330
1F
100
AcDbEntity
  8
0
  6
Continuous
 62
     7
370
    25
100
AcDbCircle
 10
0.0
 20
-145.0
 30
0.0
 40
6.50000000000001
  0
CIRCLE
  5
8B
330
1F
100
AcDbEntity
  8
0
  6
Continuous
 62
     7
370
    25
100
AcDbCircle
 10
-145.0
 20
0.0
 30
0.0
 40
6.5
  0
CIRCLE
  5
8C
330
1F
100
AcDbEntity
  8
0
  6
Continuous
 62
     7
370
    25
100
AcDbCircle
 10
0.0
 20
145.0
 30
0.0
 40
6.50000000000006
  0
CIRCLE
  5
8D
330
1F
100
AcDbEntity
  8
0
  6
Continuous
 62
     7
370
    25
100
AcDbCircle
 10
145.0
 20
0.0
 30
0.0
 40
6.500000000000057
  0
CIRCLE
  5
8E
330
1F
100
AcDbEntity
  8
0
  6
Continuous
 62
     7
370
    25
100
AcDbCircle
 10
0.0
 20
0.0000000001
 30
0.0
 40
349.9999999999994
  0
CIRCLE
  5
8F
330
1F
100
AcDbEntity
  8
0
  6
Continuous
 62
     7
370
    25
100
AcDbCircle
 10
0.0
 20
0.0
 30
0.0
 40
15.0
  0
CIRCLE
  5
90
330
1F
100
AcDbEntity
  8
0
  6
Continuous
 62
     7
370
    25
100
AcDbCircle
 10
0.0
 20
-118.0
 30
0.0
 40
15.00000000000001
  0
CIRCLE
  5
91
330
1F
100
AcDbEntity
  8
0
  6
Continuous
 62
     7
370
    25
100
AcDbCircle
 10
0.0
 20
220.0
 30
0.0
 40
15.00000000000001
  0
LINE
  5
93
330
1F
100
AcDbEntity
  8
0
  6
Continuous
 62
     7
370
    25
100
AcDbLine
 10
-135.0890361324
 20
-173.216489737
 30
0.0
 11
-45.9773095544
 21
-84.1373104285
 31
0.0
  0
LINE
  5
94
330
1F
100
AcDbEntity
  8
0
  6
Continuous
 62
     7
370
    25
100
AcDbLine
 10
-84.1541006866
 20
-45.9465704665
 30
0.0
 11
-173.2658272646
 21
-135.025749775
 31
0.0
  0
LINE
  5
95
330
1F
100
AcDbEntity
  8
0
  6
Continuous
 62
     7
370
    25
100
AcDbLine
 10
173.216489737
 20
-135.0890361324
 30
0.0
 11
84.1373104285
 21
-45.9773095544
 31
0.0
  0
LINE
  5
96
330
1F
100
AcDbEntity
  8
0
  6
Continuous
 62
     7
370
    25
100
AcDbLine
 10
45.9465704665
 20
-84.1541006866
 30
0.0
 11
135.025749775
 21
-173.2658272646
 31
0.0
  0
LINE
  5
97
330
1F
100
AcDbEntity
  8
0
  6
Continuous
 62
     7
370
    25
100
AcDbLine
 10
135.0890361324
 20
173.216489737
 30
0.0
 11
45.9773095544
 21
84.1373104285
 31
0.0
  0
LINE
  5
98
330
1F
100
AcDbEntity
  8
0
  6
Continuous
 62
     7
370
    25
100
AcDbLine
 10
84.1541006866
 20
45.9465704665
 30
0.0
 11
173.2658272646
 21
135.025749775
 31
0.0
  0
LINE
  5
99
330
1F
100
AcDbEntity
  8
0
  6
Continuous
 62
     7
370
    25
100
AcDbLine
 10
-173.216489737
 20
135.0890361324
 30
0.0
 11
-84.1373104285
 21
45.9773095544
 31
0.0
  0
LINE
  5
9A
330
1F
100
AcDbEntity
  8
0
  6
Continuous
 62
     7
370
    25
100
AcDbLine
 10
-45.9465704665
 20
84.1541006866
 30
0.0
 11
-135.025749775
 21
173.2658272646
 31
0.0
  0
ARC
  5
9B
330
1F
100
AcDbEntity
  8
0
  6
Continuous
 62
     7
370
    25
100
AcDbCircle
 10
0.0
 20
-193.4575448474
 30
0.0
 40
126.5424551525689
100
AcDbArc
 50
235.7256764867
 51
304.2743235133
  0
ARC
  5
9C
330
1F
100
AcDbEntity
  8
0
  6
Continuous
 62
     7
370
    25
100
AcDbCircle
 10
60.0
 20
-281.4989825341
 30
0.0
 40
20.00000000000004
100
AcDbArc
 50
304.2743235133
 51
124.2743235133
  0
ARC
  5
9D
330
1F
100
AcDbEntity
  8
0
  6
Continuous
 62
     7
370
    25
100
AcDbCircle
 10
0.0
 20
-193.4575448474
 30
0.0
 40
86.54245515257
100
AcDbArc
 50
235.7256764867
 51
304.2743235133
  0
ARC
  5
9E
330
1F
100
AcDbEntity
  8
0
  6
Continuous
 62
     7
370
    25
100
AcDbCircle
 10
-60.0
 20
-281.4989825341
 30
0.0
 40
20.0
100
AcDbArc
 50
55.7256764867
 51
235.7256764867
  0
ARC
  5
9F
330
1F
100
AcDbEntity
  8
0
  6
Continuous
 62
     7
370
    25
100
AcDbCircle
 10
0.0
 20
193.4575448474
 30
0.0
 40
86.54245515257013
100
AcDbArc
 50
55.7256764867
 51
124.2743235133
  0
ARC
  5
A0
330
1F
100
AcDbEntity
  8
0
  6
Continuous
 62
     7
370
    25
100
AcDbCircle
 10
60.0
 20
281.4989825341
 30
0.0
 40
19.99999999999997
100
AcDbArc
 50
235.7256764867
 51
55.7256764867
  0
ARC
  5
A1
330
1F
100
AcDbEntity
  8
0
  6
Continuous
 62
     7
370
    25
100
AcDbCircle
 10
0.0
 20
193.4575448474
 30
0.0
 40
126.5424551525692
100
AcDbArc
 50
55.7256764867
 51
124.2743235133
  0
ARC
  5
A2
330
1F
100
AcDbEntity
  8
0
  6
Continuous
 62
     7
370
    25
100
AcDbCircle
 10
-60.0
 20
281.4989825341
 30
0.0
 40
20.00000000000005
100
AcDbArc
 50
124.2743235133
 51
304.2743235133
  0
ARC
  5
A3
330
1F
100
AcDbEntity
  8
0
  6
Continuous
 62
     7
370
    25
100
AcDbCircle
 10
-65.0657051205
 20
-65.0419404475
 30
0.0
 40
27.00000000000025
100
AcDbArc
 50
314.9895347007
 51
134.9895347007
  0
ARC
  5
A4
330
1F
100
AcDbEntity
  8
0
  6
Continuous
 62
     7
370
    25
100
AcDbCircle
 10
-154.1774316985
 20
-154.121119756
 30
0.0
 40
27.0
100
AcDbArc
 50
134.9895347007
 51
314.9895347007
  0
ARC
  5
A5
330
1F
100
AcDbEntity
  8
0
  6
Continuous
 62
     7
370
    25
100
AcDbCircle
 10
65.0419404475
 20
-65.0657051205
 30
0.0
 40
27.00000000000048
100
AcDbArc
 50
44.9895347007
 51
224.9895347007
  0
ARC
  5
A6
330
1F
100
AcDbEntity
  8
0
  6
Continuous
 62
     7
370
    25
100
AcDbCircle
 10
65.0657051205
 20
65.0419404475
 30
0.0
 40
26.99999999999998
100
AcDbArc
 50
134.9895347007
 51
314.9895347007
  0
ARC
  5
A7
330
1F
100
AcDbEntity
  8
0
  6
Continuous
 62
     7
370
    25
100
AcDbCircle
 10
154.1774316985
 20
154.121119756
 30
0.0
 40
27.00000000000002
100
AcDbArc
 50
314.9895347007
 51
134.9895347007
  0
ARC
  5
A8
330
1F
100
AcDbEntity
  8
0
  6
Continuous
 62
     7
370
    25
100
AcDbCircle
 10
-65.0419404475
 20
65.0657051205
 30
0.0
 40
26.99999999999999
100
AcDbArc
 50
224.9895347007
 51
44.9895347007
  0
ARC
  5
A9
330
1F
100
AcDbEntity
  8
0
  6
Continuous
 62
     7
370
    25
100
AcDbCircle
 10
-154.121119756
 20
154.1774316985
 30
0.0
 40
27.00000000000004
100
AcDbArc
 50
44.9895347007
 51
224.9895347007
  0
ARC
  5
AA
330
1F
100
AcDbEntity
  8
0
  6
Continuous
 62
     7
370
    25
100
AcDbCircle
 10
154.121119756
 20
-154.1774316985
 30
0.0
 40
27.00000000000004
100
AcDbArc
 50
224.9895347007
 51
44.9895347007
  0
CIRCLE
  5
C2
330
1B
100
AcDbEntity
 67
     1
  8
0
  6
Continuous
 62
     7
370
    25
100
AcDbCircle
 10
0.0
 20
-145.0
 30
0.0
 40
6.50000000000001
  0
CIRCLE
  5
C3
330
1B
100
AcDbEntity
 67
     1
  8
0
  6
Continuous
 62
     7
370
    25
100
AcDbCircle
 10
-145.0
 20
0.0
 30
0.0
 40
6.5
  0
CIRCLE
  5
C4
330
1B
100
AcDbEntity
 67
     1
  8
0
  6
Continuous
 62
     7
370
    25
100
AcDbCircle
 10
0.0
 20
145.0
 30
0.0
 40
6.50000000000006
  0
CIRCLE
  5
C5
330
1B
100
AcDbEntity
 67
     1
  8
0
  6
Continuous
 62
     7
370
    25
100
AcDbCircle
 10
145.0
 20
0.0
 30
0.0
 40
6.500000000000057
  0
CIRCLE
  5
C6
330
1B
100
AcDbEntity
 67
     1
  8
0
  6
Continuous
 62
     7
370
    25
100
AcDbCircle
 10
0.0
 20
0.0000000001
 30
0.0
 40
349.9999999999994
  0
CIRCLE
  5
C7
330
1B
100
AcDbEntity
 67
     1
  8
0
  6
Continuous
 62
     7
370
    25
100
AcDbCircle
 10
0.0
 20
0.0
 30
0.0
 40
15.0
  0
CIRCLE
  5
C8
330
1B
100
AcDbEntity
 67
     1
  8
0
  6
Continuous
 62
     7
370
    25
100
AcDbCircle
 10
0.0
 20
-118.0
 30
0.0
 40
15.00000000000001
  0
CIRCLE
  5
C9
330
1B
100
AcDbEntity
 67
     1
  8
0
  6
Continuous
 62
     7
370
    25
100
AcDbCircle
 10
0.0
 20
220.0
 30
0.0
 40
15.00000000000001
  0
LINE
  5
CB
330
1B
100
AcDbEntity
 67
     1
  8
0
  6
Continuous
 62
     7
370
    25
100
AcDbLine
 10
-135.0890361324
 20
-173.216489737
 30
0.0
 11
-45.9773095544
 21
-84.1373104285
 31
0.0
  0
LINE
  5
CC
330
1B
100
AcDbEntity
 67
     1
  8
0
  6
Continuous
 62
     7
370
    25
100
AcDbLine
 10
-84.1541006866
 20
-45.9465704665
 30
0.0
 11
-173.2658272646
 21
-135.025749775
 31
0.0
  0
LINE
  5
CD
330
1B
100
AcDbEntity
 67
     1
  8
0
  6
Continuous
 62
     7
370
    25
100
AcDbLine
 10
173.216489737
 20
-135.0890361324
 30
0.0
 11
84.1373104285
 21
-45.9773095544
 31
0.0
  0
LINE
  5
CE
330
1B
100
AcDbEntity
 67
     1
  8
0
  6
Continuous
 62
     7
370
    25
100
AcDbLine
 10
45.9465704665
 20
-84.1541006866
 30
0.0
 11
135.025749775
 21
-173.2658272646
 31
0.0
  0
LINE
  5
CF
330
1B
100
AcDbEntity
 67
     1
  8
0
  6
Continuous
 62
     7
370
    25
100
AcDbLine
 10
135.0890361324
 20
173.216489737
 30
0.0
 11
45.9773095544
 21
84.1373104285
 31
0.0
  0
LINE
  5
D0
330
1B
100
AcDbEntity
 67
     1
  8
0
  6
Continuous
 62
     7
370
    25
100
AcDbLine
 10
84.1541006866
 20
45.9465704665
 30
0.0
 11
173.2658272646
 21
135.025749775
 31
0.0
  0
LINE
  5
D1
330
1B
100
AcDbEntity
 67
     1
  8
0
  6
Continuous
 62
     7
370
    25
100
AcDbLine
 10
-173.216489737
 20
135.0890361324
 30
0.0
 11
-84.1373104285
 21
45.9773095544
 31
0.0
  0
LINE
  5
D2
330
1B
100
AcDbEntity
 67
     1
  8
0
  6
Continuous
 62
     7
370
    25
100
AcDbLine
 10
-45.9465704665
 20
84.1541006866
 30
0.0
 11
-135.025749775
 21
173.2658272646
 31
0.0
  0
ARC
  5
D3
330
1B
100
AcDbEntity
 67
     1
  8
0
  6
Continuous
 62
     7
370
    25
100
AcDbCircle
 10
0.0
 20
-193.4575448474
 30
0.0
 40
126.5424551525689
100
AcDbArc
 50
235.7256764867
 51
304.2743235133
  0
ARC
  5
D4
330
1B
100
AcDbEntity
 67
     1
  8
0
  6
Continuous
 62
     7
370
    25
100
AcDbCircle
 10
60.0
 20
-281.4989825341
 30
0.0
 40
20.00000000000004
100
AcDbArc
 50
304.2743235133
 51
124.2743235133
  0
ARC
  5
D5
330
1B
100
AcDbEntity
 67
     1
  8
0
  6
Continuous
 62
     7
370
    25
100
AcDbCircle
 10
0.0
 20
-193.4575448474
 30
0.0
 40
86.54245515257
100
AcDbArc
 50
235.7256764867
 51
304.2743235133
  0
ARC
  5
D6
330
1B
100
AcDbEntity
 67
     1
  8
0
  6
Continuous
 62
     7
370
    25
100
AcDbCircle
 10
-60.0
 20
-281.4989825341
 30
0.0
 40
20.0
100
AcDbArc
 50
55.7256764867
 51
235.7256764867
  0
ARC
  5
D7
330
1B
100
AcDbEntity
 67
     1
  8
0
  6
Continuous
 62
     7
370
    25
100
AcDbCircle
 10
0.0
 20
193.4575448474
 30
0.0
 40
86.54245515257013
100
AcDbArc
 50
55.7256764867
 51
124.2743235133
  0
ARC
  5
D8
330
1B
100
AcDbEntity
 67
     1
  8
0
  6
Continuous
 62
     7
370
    25
100
AcDbCircle
 10
60.0
 20
281.4989825341
 30
0.0
 40
19.99999999999997
100
AcDbArc
 50
235.7256764867
 51
55.7256764867
  0
ARC
  5
D9
330
1B
100
AcDbEntity
 67
     1
  8
0
  6
Continuous
 62
     7
370
    25
100
AcDbCircle
 10
0.0
 20
193.4575448474
 30
0.0
 40
126.5424551525692
100
AcDbArc
 50
55.7256764867
 51
124.2743235133
  0
ARC
  5
DA
330
1B
100
AcDbEntity
 67
     1
  8
0
  6
Continuous
 62
     7
370
    25
100
AcDbCircle
 10
-60.0
 20
281.4989825341
 30
0.0
 40
20.00000000000005
100
AcDbArc
 50
124.2743235133
 51
304.2743235133
  0
ARC
  5
DB
330
1B
100
AcDbEntity
 67
     1
  8
0
  6
Continuous
 62
     7
370
    25
100
AcDbCircle
 10
-65.0657051205
 20
-65.0419404475
 30
0.0
 40
27.00000000000025
100
AcDbArc
 50
314.9895347007
 51
134.9895347007
  0
ARC
  5
DC
330
1B
100
AcDbEntity
 67
     1
  8
0
  6
Continuous
 62
     7
370
    25
100
AcDbCircle
 10
-154.1774316985
 20
-154.121119756
 30
0.0
 40
27.0
100
AcDbArc
 50
134.9895347007
 51
314.9895347007
  0
ARC
  5
DD
330
1B
100
AcDbEntity
 67
     1
  8
0
  6
Continuous
 62
     7
370
    25
100
AcDbCircle
 10
65.0419404475
 20
-65.0657051205
 30
0.0
 40
27.00000000000048
100
AcDbArc
 50
44.9895347007
 51
224.9895347007
  0
ARC
  5
DE
330
1B
100
AcDbEntity
 67
     1
  8
0
  6
Continuous
 62
     7
370
    25
100
AcDbCircle
 10
65.0657051205
 20
65.0419404475
 30
0.0
 40
26.99999999999998
100
AcDbArc
 50
134.9895347007
 51
314.9895347007
  0
ARC
  5
DF
330
1B
100
AcDbEntity
 67
     1
  8
0
  6
Continuous
 62
     7
370
    25
100
AcDbCircle
 10
154.1774316985
 20
154.121119756
 30
0.0
 40
27.00000000000002
100
AcDbArc
 50
314.9895347007
 51
134.9895347007
  0
ARC
  5
E0
330
1B
100
AcDbEntity
 67
     1
  8
0
  6
Continuous
 62
     7
370
    25
100
AcDbCircle
 10
-65.0419404475
 20
65.0657051205
 30
0.0
 40
26.99999999999999
100
AcDbArc
 50
224.9895347007
 51
44.9895347007
  0
ARC
  5
E1
330
1B
100
AcDbEntity
 67
     1
  8
0
  6
Continuous
 62
     7
370
    25
100
AcDbCircle
 10
-154.121119756
 20
154.1774316985
 30
0.0
 40
27.00000000000004
100
AcDbArc
 50
44.9895347007
 51
224.9895347007
  0
ARC
  5
E2
330
1B
100
AcDbEntity
 67
     1
  8
0
  6
Continuous
 62
     7
370
    25
100
AcDbCircle
 10
154.121119756
 20
-154.1774316985
 30
0.0
 40
27.00000000000004
100
AcDbArc
 50
224.9895347007
 51
44.9895347007
  0
VIEWPORT
  5
36D
330
1B
100
AcDbEntity
 67
     1
  8
0
100
AcDbViewport
 10
0.0
 20
0.0
 30
0.0
 40
205.6
 41
156.0
 68
     1
 69
     1
 12
0.0
 22
0.0000000001
 13
0.0
 23
0.0
 14
10.0
 24
10.0
 15
10.0
 25
10.0
 16
0.0
 26
0.0
 36
1.0
 17
0.0
 27
0.0
 37
0.0
 42
50.0
 43
0.0
 44
0.0
 45
714.0
 50
0.0
 51
0.0
 72
   100
 90
   557152
  1

281
     0
 71
     1
 74
     0
110
0.0
120
0.0
130
0.0
111
1.0
121
0.0
131
0.0
112
0.0
122
1.0
132
0.0
 79
     0
146
0.0
  0
ENDSEC
  0
SECTION
  2
OBJECTS
  0
DICTIONARY
  5
C
330
0
100
AcDbDictionary
281
     1
  3
ACAD_GROUP
350
D
  3
ACAD_LAYOUT
350
1A
  3
ACAD_MLINESTYLE
350
17
  3
ACAD_PLOTSETTINGS
350
19
  3
ACAD_PLOTSTYLENAME
350
E
  3
ACAD_SCALELIST
350
47
  0
DICTIONARY
  5
D
102
{ACAD_REACTORS
330
C
102
}
330
C
100
AcDbDictionary
281
     1
  0
DICTIONARY
  5
1A
102
{ACAD_REACTORS
330
C
102
}
330
C
100
AcDbDictionary
281
     1
  3
_Диметрия
350
2E0
  3
_Изометрия
350
1E5
  3
_Перпендикулярно
350
142
  3
_Сверху
350
11C
  3
_Сзади
350
17E
  3
_Слева
350
1C1
  3
_Снизу
350
1D9
  3
_Спереди
350
26
  3
_Справа
350
128
  3
_Триметрия
350
264
  3
Model
350
22
  3
Notes Area
350
1E
  0
DICTIONARY
  5
17
102
{ACAD_REACTORS
330
C
102
}
330
C
100
AcDbDictionary
281
     1
  3
Standard
350
18
  0
DICTIONARY
  5
19
102
{ACAD_REACTORS
330
C
102
}
330
C
100
AcDbDictionary
281
     1
  0
ACDBDICTIONARYWDFLT
  5
E
102
{ACAD_REACTORS
330
C
102
}
330
C
100
AcDbDictionary
281
     1
  3
Normal
350
F
100
AcDbDictionaryWithDefault
340
F
  0
DICTIONARY
  5
47
102
{ACAD_REACTORS
330
C
102
}
330
C
100
AcDbDictionary
281
     1
  3
A0
350
48
  3
A1
350
49
  3
A2
350
4A
  3
A3
350
4B
  3
A4
350
4C
  3
A5
350
4D
  3
A6
350
4E
  3
A7
350
4F
  3
A8
350
50
  3
A9
350
51
  3
B0
350
52
  3
B1
350
53
  3
B2
350
54
  3
B3
350
55
  3
B4
350
56
  3
B5
350
57
  3
B6
350
58
  3
B7
350
59
  3
B8
350
5A
  3
B9
350
5B
  3
C0
350
5C
  3
C1
350
5D
  3
C2
350
5E
  3
C3
350
5F
  3
C4
350
60
  3
C5
350
61
  3
C6
350
62
  3
C7
350
63
  3
C8
350
64
  3
C9
350
65
  3
D0
350
66
  3
D1
350
67
  3
D2
350
68
  0
LAYOUT
  5
2E0
102
{ACAD_REACTORS
330
1A
102
}
330
1A
100
AcDbPlotSettings
  1

  2
none_device
  4
ISO_A4_(210.00_x_297.00_MM)
  6

 40
7.5
 41
20.0
 42
7.5
 43
20.0
 44
210.0
 45
297.0
 46
0.0
 47
0.0
 48
0.0
 49
0.0
140
0.0
141
0.0
142
1.0
143
3.5897435897
 70
   688
 72
     1
 73
     1
 74
     1
  7

 75
     0
147
0.2785714286
148
350.0
149
349.9999999999
100
AcDbLayout
  1
_Диметрия
 70
     1
 71
    11
 10
0.0
 20
0.0
 11
0.0
 21
0.0
 12
0.0
 22
0.0
 32
0.0
 14
0.0
 24
0.0
 34
0.0
 15
0.0
 25
0.0
 35
0.0
146
0.0
 13
0.0
 23
0.0
 33
0.0
 16
1.0
 26
0.0
 36
0.0
 17
0.0
 27
1.0
 37
0.0
 76
     0
330
2DF
331
381
  0
LAYOUT
  5
1E5
102
{ACAD_REACTORS
330
1A
102
}
330
1A
100
AcDbPlotSettings
  1

  2
none_device
  4
ISO_A4_(210.00_x_297.00_MM)
  6

 40
7.5
 41
20.0
 42
7.5
 43
20.0
 44
210.0
 45
297.0
 46
0.0
 47
0.0
 48
0.0
 49
0.0
140
0.0
141
0.0
142
1.0
143
3.5897435897
 70
   688
 72
     1
 73
     1
 74
     1
  7

 75
     0
147
0.2785714286
148
350.0
149
349.9999999999
100
AcDbLayout
  1
_Изометрия
 70
     1
 71
     9
 10
0.0
 20
0.0
 11
0.0
 21
0.0
 12
0.0
 22
0.0
 32
0.0
 14
0.0
 24
0.0
 34
0.0
 15
0.0
 25
0.0
 35
0.0
146
0.0
 13
0.0
 23
0.0
 33
0.0
 16
1.0
 26
0.0
 36
0.0
 17
0.0
 27
1.0
 37
0.0
 76
     0
330
1E4
331
37D
  0
LAYOUT
  5
142
102
{ACAD_REACTORS
330
1A
102
}
330
1A
100
AcDbPlotSettings
  1

  2
none_device
  4
ISO_A4_(210.00_x_297.00_MM)
  6

 40
7.5
 41
20.0
 42
7.5
 43
20.0
 44
210.0
 45
297.0
 46
0.0
 47
0.0
 48
0.0
 49
0.0
140
0.0
141
0.0
142
1.0
143
3.5897435897
 70
   688
 72
     1
 73
     1
 74
     1
  7

 75
     0
147
0.2785714286
148
350.0
149
349.9999999999
100
AcDbLayout
  1
_Перпендикулярно
 70
     1
 71
     5
 10
0.0
 20
0.0
 11
0.0
 21
0.0
 12
0.0
 22
0.0
 32
0.0
 14
0.0
 24
0.0
 34
0.0
 15
0.0
 25
0.0
 35
0.0
146
0.0
 13
0.0
 23
0.0
 33
0.0
 16
1.0
 26
0.0
 36
0.0
 17
0.0
 27
1.0
 37
0.0
 76
     0
330
141
331
375
  0
LAYOUT
  5
11C
102
{ACAD_REACTORS
330
1A
102
}
330
1A
100
AcDbPlotSettings
  1

  2
none_device
  4
ISO_A4_(210.00_x_297.00_MM)
  6

 40
7.5
 41
20.0
 42
7.5
 43
20.0
 44
210.0
 45
297.0
 46
0.0
 47
0.0
 48
0.0
 49
0.0
140
0.0
141
0.0
142
1.0
143
3.5897435897
 70
   688
 72
     1
 73
     1
 74
     1
  7

 75
     0
147
0.2785714286
148
350.0
149
349.9999999999
100
AcDbLayout
  1
_Сверху
 70
     1
 71
     3
 10
0.0
 20
0.0
 11
0.0
 21
0.0
 12
0.0
 22
0.0
 32
0.0
 14
0.0
 24
0.0
 34
0.0
 15
0.0
 25
0.0
 35
0.0
146
0.0
 13
0.0
 23
0.0
 33
0.0
 16
1.0
 26
0.0
 36
0.0
 17
0.0
 27
1.0
 37
0.0
 76
     0
330
11B
331
371
  0
LAYOUT
  5
17E
102
{ACAD_REACTORS
330
1A
102
}
330
1A
100
AcDbPlotSettings
  1

  2
none_device
  4
ISO_A4_(210.00_x_297.00_MM)
  6

 40
7.5
 41
20.0
 42
7.5
 43
20.0
 44
210.0
 45
297.0
 46
0.0
 47
0.0
 48
0.0
 49
0.0
140
0.0
141
0.0
142
1.0
143
3.5897435897
 70
   688
 72
     1
 73
     1
 74
     1
  7

 75
     0
147
0.2785714286
148
350.0
149
349.9999999999
100
AcDbLayout
  1
_Сзади
 70
     1
 71
     6
 10
0.0
 20
0.0
 11
0.0
 21
0.0
 12
0.0
 22
0.0
 32
0.0
 14
0.0
 24
0.0
 34
0.0
 15
0.0
 25
0.0
 35
0.0
146
0.0
 13
0.0
 23
0.0
 33
0.0
 16
1.0
 26
0.0
 36
0.0
 17
0.0
 27
1.0
 37
0.0
 76
     0
330
17D
331
377
  0
LAYOUT
  5
1C1
102
{ACAD_REACTORS
330
1A
102
}
330
1A
100
AcDbPlotSettings
  1

  2
none_device
  4
ISO_A4_(210.00_x_297.00_MM)
  6

 40
7.5
 41
20.0
 42
7.5
 43
20.0
 44
210.0
 45
297.0
 46
0.0
 47
0.0
 48
0.0
 49
0.0
140
0.0
141
0.0
142
1.0
143
3.5897435897
 70
   688
 72
     1
 73
     1
 74
     1
  7

 75
     0
147
0.2785714286
148
350.0
149
349.9999999999
100
AcDbLayout
  1
_Слева
 70
     1
 71
     7
 10
0.0
 20
0.0
 11
0.0
 21
0.0
 12
0.0
 22
0.0
 32
0.0
 14
0.0
 24
0.0
 34
0.0
 15
0.0
 25
0.0
 35
0.0
146
0.0
 13
0.0
 23
0.0
 33
0.0
 16
1.0
 26
0.0
 36
0.0
 17
0.0
 27
1.0
 37
0.0
 76
     0
330
1C0
331
379
  0
LAYOUT
  5
1D9
102
{ACAD_REACTORS
330
1A
102
}
330
1A
100
AcDbPlotSettings
  1

  2
none_device
  4
ISO_A4_(210.00_x_297.00_MM)
  6

 40
7.5
 41
20.0
 42
7.5
 43
20.0
 44
210.0
 45
297.0
 46
0.0
 47
0.0
 48
0.0
 49
0.0
140
0.0
141
0.0
142
1.0
143
3.5897435897
 70
   688
 72
     1
 73
     1
 74
     1
  7

 75
     0
147
0.2785714286
148
350.0
149
349.9999999999
100
AcDbLayout
  1
_Снизу
 70
     1
 71
     8
 10
0.0
 20
0.0
 11
0.0
 21
0.0
 12
0.0
 22
0.0
 32
0.0
 14
0.0
 24
0.0
 34
0.0
 15
0.0
 25
0.0
 35
0.0
146
0.0
 13
0.0
 23
0.0
 33
0.0
 16
1.0
 26
0.0
 36
0.0
 17
0.0
 27
1.0
 37
0.0
 76
     0
330
1D8
331
37B
  0
LAYOUT
  5
26
102
{ACAD_REACTORS
330
1A
102
}
330
1A
100
AcDbPlotSettings
  1

  2
none_device
  4
ISO_A4_(210.00_x_297.00_MM)
  6

 40
7.5
 41
20.0
 42
7.5
 43
20.0
 44
210.0
 45
297.0
 46
0.0
 47
0.0
 48
0.0
 49
0.0
140
0.0
141
0.0
142
1.0
143
3.5897435897
 70
   688
 72
     1
 73
     1
 74
     1
  7

 75
     0
147
0.2785714286
148
350.0
149
349.9999999999
100
AcDbLayout
  1
_Спереди
 70
     1
 71
     2
 10
0.0
 20
0.0
 11
0.0
 21
0.0
 12
0.0
 22
0.0
 32
0.0
 14
0.0
 24
0.0
 34
0.0
 15
0.0
 25
0.0
 35
0.0
146
0.0
 13
0.0
 23
0.0
 33
0.0
 16
1.0
 26
0.0
 36
0.0
 17
0.0
 27
1.0
 37
0.0
 76
     0
330
23
331
36F
  0
LAYOUT
  5
128
102
{ACAD_REACTORS
330
1A
102
}
330
1A
100
AcDbPlotSettings
  1

  2
none_device
  4
ISO_A4_(210.00_x_297.00_MM)
  6

 40
7.5
 41
20.0
 42
7.5
 43
20.0
 44
210.0
 45
297.0
 46
0.0
 47
0.0
 48
0.0
 49
0.0
140
0.0
141
0.0
142
1.0
143
3.5897435897
 70
   688
 72
     1
 73
     1
 74
     1
  7

 75
     0
147
0.2785714286
148
350.0
149
349.9999999999
100
AcDbLayout
  1
_Справа
 70
     1
 71
     4
 10
0.0
 20
0.0
 11
0.0
 21
0.0
 12
0.0
 22
0.0
 32
0.0
 14
0.0
 24
0.0
 34
0.0
 15
0.0
 25
0.0
 35
0.0
146
0.0
 13
0.0
 23
0.0
 33
0.0
 16
1.0
 26
0.0
 36
0.0
 17
0.0
 27
1.0
 37
0.0
 76
     0
330
127
331
373
  0
LAYOUT
  5
264
102
{ACAD_REACTORS
330
1A
102
}
330
1A
100
AcDbPlotSettings
  1

  2
none_device
  4
ISO_A4_(210.00_x_297.00_MM)
  6

 40
7.5
 41
20.0
 42
7.5
 43
20.0
 44
210.0
 45
297.0
 46
0.0
 47
0.0
 48
0.0
 49
0.0
140
0.0
141
0.0
142
1.0
143
3.5897435897
 70
   688
 72
     1
 73
     1
 74
     1
  7

 75
     0
147
0.2785714286
148
350.0
149
349.9999999999
100
AcDbLayout
  1
_Триметрия
 70
     1
 71
    10
 10
0.0
 20
0.0
 11
0.0
 21
0.0
 12
0.0
 22
0.0
 32
0.0
 14
0.0
 24
0.0
 34
0.0
 15
0.0
 25
0.0
 35
0.0
146
0.0
 13
0.0
 23
0.0
 33
0.0
 16
1.0
 26
0.0
 36
0.0
 17
0.0
 27
1.0
 37
0.0
 76
     0
330
263
331
37F
  0
LAYOUT
  5
22
102
{ACAD_REACTORS
330
1A
102
}
330
1A
100
AcDbPlotSettings
  1

  2
none_device
  4
ANSI_A_(11.00_x_8.50_Inches)
  6

 40
6.35
 41
19.05
 42
6.35000508
 43
19.05000254
 44
279.4
 45
215.9
 46
133.34999746
 47
88.89999873
 48
0.0
 49
0.0
140
0.0
141
0.0
142
0.0120214286
143
1.0
 70
  1696
 72
     0
 73
     0
 74
     0
  7

 75
     0
147
0.0179189148
148
-1300.4909072572
149
0.0
100
AcDbLayout
  1
Model
 70
     1
 71
     0
 10
0.0
 20
0.0
 11
420.0
 21
297.0
 12
0.0
 22
0.0
 32
0.0
 14
-350.0
 24
-349.9999999999
 34
0.0
 15
350.0
 25
350.0000000001
 35
0.0
146
0.0
 13
0.0
 23
0.0
 33
0.0
 16
1.0
 26
0.0
 36
0.0
 17
0.0
 27
1.0
 37
0.0
 76
     0
330
1F
331
29
  0
LAYOUT
  5
1E
102
{ACAD_REACTORS
330
1A
102
}
330
1A
100
AcDbPlotSettings
  1

  2
none_device
  4
ISO_A4_(210.00_x_297.00_MM)
  6

 40
7.5
 41
20.0
 42
7.5
 43
20.0
 44
210.0
 45
297.0
 46
0.0
 47
0.0
 48
0.0
 49
0.0
140
0.0
141
0.0
142
1.0
143
3.5897435897
 70
   688
 72
     1
 73
     1
 74
     1
  7

 75
     0
147
0.2785714286
148
350.0
149
349.9999999999
100
AcDbLayout
  1
Notes Area
 70
     1
 71
     1
 10
-421.7948717949
 20
-376.923076923
 11
644.358974359
 21
376.9230769232
 12
0.0
 22
0.0
 32
0.0
 14
-350.0
 24
-349.9999999999
 34
0.0
 15
350.0
 25
350.0000000001
 35
0.0
146
0.0
 13
0.0
 23
0.0
 33
0.0
 16
1.0
 26
0.0
 36
0.0
 17
0.0
 27
1.0
 37
0.0
 76
     0
330
1B
331
36D
  0
MLINESTYLE
  5
18
102
{ACAD_REACTORS
330
17
102
}
330
17
100
AcDbMlineStyle
  2
Standard
 70
     0
  3

 62
   256
 51
90.0
 52
90.0
 71
     2
 49
0.5
 62
   256
  6
BYLAYER
 49
-0.5
 62
   256
  6
BYLAYER
  0
ACDBPLACEHOLDER
  5
F
102
{ACAD_REACTORS
330
E
102
}
330
E
  0
SCALE
  5
48
102
{ACAD_REACTORS
330
47
102
}
330
47
100
AcDbScale
 70
     0
300
1:1
140
1.0
141
1.0
290
     1
  0
SCALE
  5
49
102
{ACAD_REACTORS
330
47
102
}
330
47
100
AcDbScale
 70
     0
300
1:2
140
1.0
141
2.0
290
     0
  0
SCALE
  5
4A
102
{ACAD_REACTORS
330
47
102
}
330
47
100
AcDbScale
 70
     0
300
1:4
140
1.0
141
4.0
290
     0
  0
SCALE
  5
4B
102
{ACAD_REACTORS
330
47
102
}
330
47
100
AcDbScale
 70
     0
300
1:5
140
1.0
141
5.0
290
     0
  0
SCALE
  5
4C
102
{ACAD_REACTORS
330
47
102
}
330
47
100
AcDbScale
 70
     0
300
1:8
140
1.0
141
8.0
290
     0
  0
SCALE
  5
4D
102
{ACAD_REACTORS
330
47
102
}
330
47
100
AcDbScale
 70
     0
300
1:10
140
1.0
141
10.0
290
     0
  0
SCALE
  5
4E
102
{ACAD_REACTORS
330
47
102
}
330
47
100
AcDbScale
 70
     0
300
1:16
140
1.0
141
16.0
290
     0
  0
SCALE
  5
4F
102
{ACAD_REACTORS
330
47
102
}
330
47
100
AcDbScale
 70
     0
300
1:20
140
1.0
141
20.0
290
     0
  0
SCALE
  5
50
102
{ACAD_REACTORS
330
47
102
}
330
47
100
AcDbScale
 70
     0
300
1:30
140
1.0
141
30.0
290
     0
  0
SCALE
  5
51
102
{ACAD_REACTORS
330
47
102
}
330
47
100
AcDbScale
 70
     0
300
1:40
140
1.0
141
40.0
290
     0
  0
SCALE
  5
52
102
{ACAD_REACTORS
330
47
102
}
330
47
100
AcDbScale
 70
     0
300
1:50
140
1.0
141
50.0
290
     0
  0
SCALE
  5
53
102
{ACAD_REACTORS
330
47
102
}
330
47
100
AcDbScale
 70
     0
300
1:100
140
1.0
141
100.0
290
     0
  0
SCALE
  5
54
102
{ACAD_REACTORS
330
47
102
}
330
47
100
AcDbScale
 70
     0
300
2:1
140
2.0
141
1.0
290
     0
  0
SCALE
  5
55
102
{ACAD_REACTORS
330
47
102
}
330
47
100
AcDbScale
 70
     0
300
4:1
140
4.0
141
1.0
290
     0
  0
SCALE
  5
56
102
{ACAD_REACTORS
330
47
102
}
330
47
100
AcDbScale
 70
     0
300
8:1
140
8.0
141
1.0
290
     0
  0
SCALE
  5
57
102
{ACAD_REACTORS
330
47
102
}
330
47
100
AcDbScale
 70
     0
300
10:1
140
10.0
141
1.0
290
     0
  0
SCALE
  5
58
102
{ACAD_REACTORS
330
47
102
}
330
47
100
AcDbScale
 70
     0
300
100:1
140
100.0
141
1.0
290
     0
  0
SCALE
  5
59
102
{ACAD_REACTORS
330
47
102
}
330
47
100
AcDbScale
 70
     0
300
1/128" = 1'-0"
140
0.0078125
141
12.0
290
     0
  0
SCALE
  5
5A
102
{ACAD_REACTORS
330
47
102
}
330
47
100
AcDbScale
 70
     0
300
1/64" = 1'-0"
140
0.015625
141
12.0
290
     0
  0
SCALE
  5
5B
102
{ACAD_REACTORS
330
47
102
}
330
47
100
AcDbScale
 70
     0
300
1/32" = 1'-0"
140
0.03125
141
12.0
290
     0
  0
SCALE
  5
5C
102
{ACAD_REACTORS
330
47
102
}
330
47
100
AcDbScale
 70
     0
300
1/16" = 1'-0"
140
0.0625
141
12.0
290
     0
  0
SCALE
  5
5D
102
{ACAD_REACTORS
330
47
102
}
330
47
100
AcDbScale
 70
     0
300
3/32" = 1'-0"
140
0.09375
141
12.0
290
     0
  0
SCALE
  5
5E
102
{ACAD_REACTORS
330
47
102
}
330
47
100
AcDbScale
 70
     0
300
1/8" = 1'-0"
140
0.125
141
12.0
290
     0
  0
SCALE
  5
5F
102
{ACAD_REACTORS
330
47
102
}
330
47
100
AcDbScale
 70
     0
300
3/16" = 1'-0"
140
0.1875
141
12.0
290
     0
  0
SCALE
  5
60
102
{ACAD_REACTORS
330
47
102
}
330
47
100
AcDbScale
 70
     0
300
1/4" = 1'-0"
140
0.25
141
12.0
290
     0
  0
SCALE
  5
61
102
{ACAD_REACTORS
330
47
102
}
330
47
100
AcDbScale
 70
     0
300
3/8" = 1'-0"
140
0.375
141
12.0
290
     0
  0
SCALE
  5
62
102
{ACAD_REACTORS
330
47
102
}
330
47
100
AcDbScale
 70
     0
300
1/2" = 1'-0"
140
0.5
141
12.0
290
     0
  0
SCALE
  5
63
102
{ACAD_REACTORS
330
47
102
}
330
47
100
AcDbScale
 70
     0
300
3/4" = 1'-0"
140
0.75
141
12.0
290
     0
  0
SCALE
  5
64
102
{ACAD_REACTORS
330
47
102
}
330
47
100
AcDbScale
 70
     0
300
1" = 1'-0"
140
1.0
141
12.0
290
     0
  0
SCALE
  5
65
102
{ACAD_REACTORS
330
47
102
}
330
47
100
AcDbScale
 70
     0
300
1-1/2" = 1'-0"
140
1.5
141
12.0
290
     0
  0
SCALE
  5
66
102
{ACAD_REACTORS
330
47
102
}
330
47
100
AcDbScale
 70
     0
300
3" = 1'-0"
140
3.0
141
12.0
290
     0
  0
SCALE
  5
67
102
{ACAD_REACTORS
330
47
102
}
330
47
100
AcDbScale
 70
     0
300
6" = 1'-0"
140
6.0
141
12.0
290
     0
  0
SCALE
  5
68
102
{ACAD_REACTORS
330
47
102
}
330
47
100
AcDbScale
 70
     0
300
1'-0" = 1'-0"
140
12.0
141
12.0
290
     0
  0
ENDSEC
  0
EOF
