  0
SECTION
  2
HEADER
  9
$ACADVER
  1
AC1014
  9
$ACADMAINTVER
 70
     9
  9
$DWGCODEPAGE
  3
ANSI_1251
  9
$INSBASE
 10
0.0
 20
0.0
 30
0.0
  9
$EXTMIN
 10
0.0
 20
0.0
 30
0.0
  9
$EXTMAX
 10
0.0
 20
0.0
 30
0.0
  9
$LIMMIN
 10
0.0
 20
0.0
  9
$LIMMAX
 10
0.0
 20
0.0
  9
$ORTHOMODE
 70
     0
  9
$REGENMODE
 70
     1
  9
$FILLMODE
 70
     1
  9
$QTEXTMODE
 70
     0
  9
$MIRRTEXT
 70
     1
  9
$DRAGMODE
 70
     2
  9
$LTSCALE
 40
1.0
  9
$OSMODE
 70
    37
  9
$ATTMODE
 70
     1
  9
$TEXTSIZE
 40
2.5
  9
$TRACEWID
 40
1.0
  9
$TEXTSTYLE
  7
STANDARD
  9
$CLAYER
  8
0
  9
$CELTYPE
  6
BYLAYER
  9
$CECOLOR
 62
   256
  9
$CELTSCALE
 40
1.0
  9
$DELOBJ
 70
     1
  9
$DISPSILH
 70
     0
  9
$DIMSCALE
 40
1.0
  9
$DIMASZ
 40
2.5
  9
$DIMEXO
 40
0.625
  9
$DIMDLI
 40
3.75
  9
$DIMRND
 40
0.0
  9
$DIMDLE
 40
0.0
  9
$DIMEXE
 40
1.25
  9
$DIMTP
 40
0.0
  9
$DIMTM
 40
0.0
  9
$DIMTXT
 40
2.5
  9
$DIMCEN
 40
2.5
  9
$DIMTSZ
 40
0.0
  9
$DIMTOL
 70
     0
  9
$DIMLIM
 70
     0
  9
$DIMTIH
 70
     0
  9
$DIMTOH
 70
     0
  9
$DIMSE1
 70
     0
  9
$DIMSE2
 70
     0
  9
$DIMTAD
 70
     1
  9
$DIMZIN
 70
     8
  9
$DIMBLK
  1

  9
$DIMASO
 70
     1
  9
$DIMSHO
 70
     1
  9
$DIMPOST
  1

  9
$DIMAPOST
  1

  9
$DIMALT
 70
     0
  9
$DIMALTD
 70
     3
  9
$DIMALTF
 40
0.0393700787
  9
$DIMLFAC
 40
1.0
  9
$DIMTOFL
 70
     1
  9
$DIMTVP
 40
0.0
  9
$DIMTIX
 70
     0
  9
$DIMSOXD
 70
     0
  9
$DIMSAH
 70
     0
  9
$DIMBLK1
  1

  9
$DIMBLK2
  1

  9
$DIMSTYLE
  2
ISO-25
  9
$DIMCLRD
 70
     0
  9
$DIMCLRE
 70
     0
  9
$DIMCLRT
 70
     0
  9
$DIMTFAC
 40
1.0
  9
$DIMGAP
 40
0.625
  9
$DIMJUST
 70
     0
  9
$DIMSD1
 70
     0
  9
$DIMSD2
 70
     0
  9
$DIMTOLJ
 70
     0
  9
$DIMTZIN
 70
     8
  9
$DIMALTZ
 70
     0
  9
$DIMALTTZ
 70
     0
  9
$DIMFIT
 70
     3
  9
$DIMUPT
 70
     0
  9
$DIMUNIT
 70
     2
  9
$DIMDEC
 70
     2
  9
$DIMTDEC
 70
     2
  9
$DIMALTU
 70
     2
  9
$DIMALTTD
 70
     3
  9
$DIMTXSTY
  7
STANDARD
  9
$DIMAUNIT
 70
     0
  9
$LUNITS
 70
     2
  9
$LUPREC
 70
     4
  9
$SKETCHINC
 40
1.0
  9
$FILLETRAD
 40
10.0
  9
$AUNITS
 70
     0
  9
$AUPREC
 70
     0
  9
$MENU
  1
.
  9
$ELEVATION
 40
0.0
  9
$PELEVATION
 40
0.0
  9
$THICKNESS
 40
0.0
  9
$LIMCHECK
 70
     0
  9
$CHAMFERA
 40
0.0
  9
$CHAMFERB
 40
0.0
  9
$CHAMFERC
 40
0.0
  9
$CHAMFERD
 40
0.0
  9
$SKPOLY
 70
     0
  9
$TDCREATE
 40
2458912.562240891
  9
$TDUPDATE
 40
2458912.562247662
  9
$TDINDWG
 40
0.0000000116
  9
$TDUSRTIMER
 40
0.0000000116
  9
$USRTIMER
 70
     1
  9
$ANGBASE
 50
0.0
  9
$ANGDIR
 70
     0
  9
$PDMODE
 70
     0
  9
$PDSIZE
 40
0.0
  9
$PLINEWID
 40
0.0
  9
$COORDS
 70
     1
  9
$SPLFRAME
 70
     0
  9
$SPLINETYPE
 70
     6
  9
$SPLINESEGS
 70
     8
  9
$ATTDIA
 70
     0
  9
$ATTREQ
 70
     1
  9
$HANDLING
 70
     1
  9
$HANDSEED
  5
29D
  9
$SURFTAB1
 70
     6
  9
$SURFTAB2
 70
     6
  9
$SURFTYPE
 70
     6
  9
$SURFU
 70
     6
  9
$SURFV
 70
     6
  9
$UCSNAME
  2

  9
$UCSORG
 10
0.0
 20
0.0
 30
0.0
  9
$UCSXDIR
 10
1.0
 20
0.0
 30
0.0
  9
$UCSYDIR
 10
0.0
 20
1.0
 30
0.0
  9
$PUCSNAME
  2

  9
$PUCSORG
 10
0.0
 20
0.0
 30
0.0
  9
$PUCSXDIR
 10
1.0
 20
0.0
 30
0.0
  9
$PUCSYDIR
 10
0.0
 20
1.0
 30
0.0
  9
$USERI1
 70
     0
  9
$USERI2
 70
     0
  9
$USERI3
 70
     0
  9
$USERI4
 70
     0
  9
$USERI5
 70
     0
  9
$USERR1
 40
0.0
  9
$USERR2
 40
0.0
  9
$USERR3
 40
0.0
  9
$USERR4
 40
0.0
  9
$USERR5
 40
0.0
  9
$WORLDVIEW
 70
     1
  9
$SHADEDGE
 70
     3
  9
$SHADEDIF
 70
    70
  9
$TILEMODE
 70
     1
  9
$MAXACTVP
 70
    64
  9
$PINSBASE
 10
0.0
 20
0.0
 30
0.0
  9
$PLIMCHECK
 70
     0
  9
$PEXTMIN
 10
0.0
 20
0.0
 30
0.0
  9
$PEXTMAX
 10
0.0
 20
0.0
 30
0.0
  9
$PLIMMIN
 10
0.0
 20
0.0
  9
$PLIMMAX
 10
0.0
 20
0.0
  9
$UNITMODE
 70
     0
  9
$VISRETAIN
 70
     1
  9
$PLINEGEN
 70
     0
  9
$PSLTSCALE
 70
     1
  9
$TREEDEPTH
 70
  3020
  9
$PICKSTYLE
 70
     1
  9
$CMLSTYLE
  2
STANDARD
  9
$CMLJUST
 70
     0
  9
$CMLSCALE
 40
20.0
  9
$PROXYGRAPHICS
 70
     1
  9
$MEASUREMENT
 70
     1
  0
ENDSEC
  0
SECTION
  2
CLASSES
  0
CLASS
  1
ACDBDICTIONARYWDFLT
  2
AcDbDictionaryWithDefault
  3
ObjectDBX Classes
 90
        0
280
     0
281
     0
  0
CLASS
  1
VISUALSTYLE
  2
AcDbVisualStyle
  3
ObjectDBX Classes
 90
     4095
280
     0
281
     0
  0
CLASS
  1
MATERIAL
  2
AcDbMaterial
  3
ObjectDBX Classes
 90
     1153
280
     0
281
     0
  0
CLASS
  1
SCALE
  2
AcDbScale
  3
ObjectDBX Classes
 90
     1153
280
     0
281
     0
  0
CLASS
  1
TABLESTYLE
  2
AcDbTableStyle
  3
ObjectDBX Classes
 90
     4095
280
     0
281
     0
  0
CLASS
  1
MLEADERSTYLE
  2
AcDbMLeaderStyle
  3
ACDB_MLEADERSTYLE_CLASS
 90
     4095
280
     0
281
     0
  0
CLASS
  1
SUN
  2
AcDbSun
  3
SCENEOE
 90
     1153
280
     0
281
     0
  0
CLASS
  1
DICTIONARYVAR
  2
AcDbDictionaryVar
  3
ObjectDBX Classes
 90
        0
280
     0
281
     0
  0
CLASS
  1
XRECORD
  2
AcDbXrecord
  3
ObjectDBX Classes
 90
        0
280
     0
281
     0
  0
CLASS
  1
LWPOLYLINE
  2
AcDbPolyline
  3
ObjectDBX Classes
 90
        0
280
     0
281
     1
  0
CLASS
  1
HATCH
  2
AcDbHatch
  3
ObjectDBX Classes
 90
        0
280
     0
281
     1
  0
CLASS
  1
ACDBPLACEHOLDER
  2
AcDbPlaceHolder
  3
ObjectDBX Classes
 90
        0
280
     0
281
     0
  0
CLASS
  1
LAYOUT
  2
AcDbLayout
  3
ObjectDBX Classes
 90
        0
280
     0
281
     0
  0
ENDSEC
  0
SECTION
  2
TABLES
  0
TABLE
  2
VPORT
  5
8
102
{ACAD_XDICTIONARY
360
292
102
}
330
0
100
AcDbSymbolTable
 70
     1
  0
VPORT
  5
29
330
8
100
AcDbSymbolTableRecord
100
AcDbViewportTableRecord
  2
*ACTIVE
 70
     0
 10
0.0
 20
0.0
 11
1.0
 21
1.0
 12
344.1869158879
 22
148.5
 13
0.0
 23
0.0
 14
10.0
 24
10.0
 15
10.0
 25
10.0
 16
0.0
 26
0.0
 36
1.0
 17
0.0
 27
0.0
 37
0.0
 40
297.0
 41
1.9729729729
 42
50.0
 43
0.0
 44
0.0
 50
0.0
 51
0.0
 71
     0
 72
   100
 73
     1
 74
     3
 75
     0
 76
     0
 77
     0
 78
     0
  0
ENDTAB
  0
TABLE
  2
LTYPE
  5
5
330
0
100
AcDbSymbolTable
 70
     1
  0
LTYPE
  5
14
330
5
100
AcDbSymbolTableRecord
100
AcDbLinetypeTableRecord
  2
BYBLOCK
 70
     0
  3

 72
    65
 73
     0
 40
0.0
  0
LTYPE
  5
15
330
5
100
AcDbSymbolTableRecord
100
AcDbLinetypeTableRecord
  2
BYLAYER
 70
     0
  3

 72
    65
 73
     0
 40
0.0
  0
LTYPE
  5
16
330
5
100
AcDbSymbolTableRecord
100
AcDbLinetypeTableRecord
  2
CONTINUOUS
 70
     0
  3
Solid line
 72
    65
 73
     0
 40
0.0
  0
ENDTAB
  0
TABLE
  2
LAYER
  5
2
330
0
100
AcDbSymbolTable
 70
     3
  0
LAYER
  5
10
330
2
100
AcDbSymbolTableRecord
100
AcDbLayerTableRecord
  2
0
 70
     0
 62
     7
  6
CONTINUOUS
  0
LAYER
  5
6E
330
2
100
AcDbSymbolTableRecord
100
AcDbLayerTableRecord
  2
INTERIOR_LOOPS
 70
     0
 62
     7
  6
CONTINUOUS
  0
LAYER
  5
1ED
330
2
100
AcDbSymbolTableRecord
100
AcDbLayerTableRecord
  2
OUTER_LOOP
 70
     0
 62
     7
  6
CONTINUOUS
  0
ENDTAB
  0
TABLE
  2
STYLE
  5
3
330
0
100
AcDbSymbolTable
 70
     1
  0
STYLE
  5
11
330
3
100
AcDbSymbolTableRecord
100
AcDbTextStyleTableRecord
  2
STANDARD
 70
     0
 40
0.0
 41
1.0
 50
0.0
 71
     0
 42
2.5
  3
txt
  4

  0
ENDTAB
  0
TABLE
  2
VIEW
  5
6
330
0
100
AcDbSymbolTable
 70
     0
  0
ENDTAB
  0
TABLE
  2
UCS
  5
7
330
0
100
AcDbSymbolTable
 70
     0
  0
ENDTAB
  0
TABLE
  2
APPID
  5
9
330
0
100
AcDbSymbolTable
 70
     2
  0
APPID
  5
12
330
9
100
AcDbSymbolTableRecord
100
AcDbRegAppTableRecord
  2
ACAD
 70
     0
  0
APPID
  5
29C
330
9
100
AcDbSymbolTableRecord
100
AcDbRegAppTableRecord
  2
ACAD_MLEADERVER
 70
     0
  0
ENDTAB
  0
TABLE
  2
DIMSTYLE
  5
A
330
0
100
AcDbSymbolTable
 70
     1
  0
DIMSTYLE
105
27
330
A
100
AcDbSymbolTableRecord
100
AcDbDimStyleTableRecord
  2
ISO-25
 70
     0
  3

  4

  5

  6

  7

 40
1.0
 41
2.5
 42
0.625
 43
3.75
 44
1.25
 45
0.0
 46
0.0
 47
0.0
 48
0.0
140
2.5
141
2.5
142
0.0
143
0.0393700787
144
1.0
145
0.0
146
1.0
147
0.625
 71
     0
 72
     0
 73
     0
 74
     0
 75
     0
 76
     0
 77
     1
 78
     8
170
     0
171
     3
172
     1
173
     0
174
     0
175
     0
176
     0
177
     0
178
     0
270
     2
271
     2
272
     2
273
     2
274
     3
340
11
275
     0
280
     0
281
     0
282
     0
283
     0
284
     8
285
     0
286
     0
287
     3
288
     0
  0
ENDTAB
  0
TABLE
  2
BLOCK_RECORD
  5
1
330
0
100
AcDbSymbolTable
 70
     0
  0
BLOCK_RECORD
  5
1F
330
1
100
AcDbSymbolTableRecord
100
AcDbBlockTableRecord
  2
*MODEL_SPACE
  0
BLOCK_RECORD
  5
1B
330
1
100
AcDbSymbolTableRecord
100
AcDbBlockTableRecord
  2
*PAPER_SPACE
  0
ENDTAB
  0
ENDSEC
  0
SECTION
  2
BLOCKS
  0
BLOCK
  5
20
330
1F
100
AcDbEntity
  8
0
100
AcDbBlockBegin
  2
*MODEL_SPACE
 70
     0
 10
0.0
 20
0.0
 30
0.0
  3
*MODEL_SPACE
  1

  0
ENDBLK
  5
21
330
1F
100
AcDbEntity
  8
0
100
AcDbBlockEnd
  0
BLOCK
  5
1C
330
1B
100
AcDbEntity
 67
     1
  8
0
100
AcDbBlockBegin
  2
*PAPER_SPACE
 70
     0
 10
0.0
 20
0.0
 30
0.0
  3
*PAPER_SPACE
  1

  0
ENDBLK
  5
1D
330
1B
100
AcDbEntity
 67
     1
  8
0
100
AcDbBlockEnd
  0
ENDSEC
  0
SECTION
  2
ENTITIES
  0
CIRCLE
  5
6F
330
1F
100
AcDbEntity
  8
INTERIOR_LOOPS
  6
CONTINUOUS
 62
     3
100
AcDbCircle
 10
96.4647410274
 20
7.3055555556
 30
0.0
 40
5.2451
  0
CIRCLE
  5
70
330
1F
100
AcDbEntity
  8
INTERIOR_LOOPS
  6
CONTINUOUS
 62
     3
100
AcDbCircle
 10
-0.7712801419
 20
47.329356617
 30
0.0
 40
3.175
  0
CIRCLE
  5
71
330
1F
100
AcDbEntity
  8
INTERIOR_LOOPS
  6
CONTINUOUS
 62
     3
100
AcDbCircle
 10
8.9511473568
 20
47.329356617
 30
0.0
 40
3.175
  0
CIRCLE
  5
72
330
1F
100
AcDbEntity
  8
INTERIOR_LOOPS
  6
CONTINUOUS
 62
     3
100
AcDbCircle
 10
8.9511473568
 20
38.1588754844
 30
0.0
 40
3.175
  0
CIRCLE
  5
73
330
1F
100
AcDbEntity
  8
INTERIOR_LOOPS
  6
CONTINUOUS
 62
     3
100
AcDbCircle
 10
8.9511473568
 20
28.9883943518
 30
0.0
 40
3.175
  0
CIRCLE
  5
74
330
1F
100
AcDbEntity
  8
INTERIOR_LOOPS
  6
CONTINUOUS
 62
     3
100
AcDbCircle
 10
18.6735748555
 20
47.329356617
 30
0.0
 40
3.175
  0
CIRCLE
  5
75
330
1F
100
AcDbEntity
  8
INTERIOR_LOOPS
  6
CONTINUOUS
 62
     3
100
AcDbCircle
 10
18.6735748555
 20
38.1588754844
 30
0.0
 40
3.175
  0
CIRCLE
  5
76
330
1F
100
AcDbEntity
  8
INTERIOR_LOOPS
  6
CONTINUOUS
 62
     3
100
AcDbCircle
 10
18.6735748555
 20
28.9883943518
 30
0.0
 40
3.175
  0
CIRCLE
  5
77
330
1F
100
AcDbEntity
  8
INTERIOR_LOOPS
  6
CONTINUOUS
 62
     3
100
AcDbCircle
 10
18.6735748555
 20
19.8179132192
 30
0.0
 40
3.175
  0
CIRCLE
  5
78
330
1F
100
AcDbEntity
  8
INTERIOR_LOOPS
  6
CONTINUOUS
 62
     3
100
AcDbCircle
 10
18.6735748555
 20
-99.3983415048
 30
0.0
 40
3.175
  0
CIRCLE
  5
79
330
1F
100
AcDbEntity
  8
INTERIOR_LOOPS
  6
CONTINUOUS
 62
     3
100
AcDbCircle
 10
18.6735748555
 20
-108.5688226374
 30
0.0
 40
3.175
  0
CIRCLE
  5
7A
330
1F
100
AcDbEntity
  8
INTERIOR_LOOPS
  6
CONTINUOUS
 62
     3
100
AcDbCircle
 10
18.6735748555
 20
-117.73930377
 30
0.0
 40
3.175
  0
CIRCLE
  5
7B
330
1F
100
AcDbEntity
  8
INTERIOR_LOOPS
  6
CONTINUOUS
 62
     3
100
AcDbCircle
 10
18.6735748555
 20
-126.9097849026
 30
0.0
 40
3.175
  0
CIRCLE
  5
7C
330
1F
100
AcDbEntity
  8
INTERIOR_LOOPS
  6
CONTINUOUS
 62
     3
100
AcDbCircle
 10
18.6735748555
 20
-136.0802660352
 30
0.0
 40
3.175
  0
CIRCLE
  5
7D
330
1F
100
AcDbEntity
  8
INTERIOR_LOOPS
  6
CONTINUOUS
 62
     3
100
AcDbCircle
 10
18.6735748555
 20
-145.2507471678
 30
0.0
 40
3.175
  0
CIRCLE
  5
7E
330
1F
100
AcDbEntity
  8
INTERIOR_LOOPS
  6
CONTINUOUS
 62
     3
100
AcDbCircle
 10
18.6735748555
 20
-154.4212283005
 30
0.0
 40
3.175
  0
CIRCLE
  5
7F
330
1F
100
AcDbEntity
  8
INTERIOR_LOOPS
  6
CONTINUOUS
 62
     3
100
AcDbCircle
 10
18.6735748555
 20
-163.5917094331
 30
0.0
 40
3.175
  0
CIRCLE
  5
80
330
1F
100
AcDbEntity
  8
INTERIOR_LOOPS
  6
CONTINUOUS
 62
     3
100
AcDbCircle
 10
28.3960023542
 20
47.329356617
 30
0.0
 40
3.175
  0
CIRCLE
  5
81
330
1F
100
AcDbEntity
  8
INTERIOR_LOOPS
  6
CONTINUOUS
 62
     3
100
AcDbCircle
 10
28.3960023542
 20
38.1588754844
 30
0.0
 40
3.175
  0
CIRCLE
  5
82
330
1F
100
AcDbEntity
  8
INTERIOR_LOOPS
  6
CONTINUOUS
 62
     3
100
AcDbCircle
 10
28.3960023542
 20
28.9883943518
 30
0.0
 40
3.175
  0
CIRCLE
  5
83
330
1F
100
AcDbEntity
  8
INTERIOR_LOOPS
  6
CONTINUOUS
 62
     3
100
AcDbCircle
 10
28.3960023542
 20
19.8179132192
 30
0.0
 40
3.175
  0
CIRCLE
  5
84
330
1F
100
AcDbEntity
  8
INTERIOR_LOOPS
  6
CONTINUOUS
 62
     3
100
AcDbCircle
 10
28.3960023542
 20
10.6474320866
 30
0.0
 40
3.175
  0
CIRCLE
  5
85
330
1F
100
AcDbEntity
  8
INTERIOR_LOOPS
  6
CONTINUOUS
 62
     3
100
AcDbCircle
 10
28.3960023542
 20
-90.2278603722
 30
0.0
 40
3.175
  0
CIRCLE
  5
86
330
1F
100
AcDbEntity
  8
INTERIOR_LOOPS
  6
CONTINUOUS
 62
     3
100
AcDbCircle
 10
28.3960023542
 20
-99.3983415048
 30
0.0
 40
3.175
  0
CIRCLE
  5
87
330
1F
100
AcDbEntity
  8
INTERIOR_LOOPS
  6
CONTINUOUS
 62
     3
100
AcDbCircle
 10
28.3960023542
 20
-108.5688226374
 30
0.0
 40
3.175
  0
CIRCLE
  5
88
330
1F
100
AcDbEntity
  8
INTERIOR_LOOPS
  6
CONTINUOUS
 62
     3
100
AcDbCircle
 10
28.3960023542
 20
-117.73930377
 30
0.0
 40
3.175
  0
CIRCLE
  5
89
330
1F
100
AcDbEntity
  8
INTERIOR_LOOPS
  6
CONTINUOUS
 62
     3
100
AcDbCircle
 10
28.3960023542
 20
-126.9097849026
 30
0.0
 40
3.175
  0
CIRCLE
  5
8A
330
1F
100
AcDbEntity
  8
INTERIOR_LOOPS
  6
CONTINUOUS
 62
     3
100
AcDbCircle
 10
28.3960023542
 20
-136.0802660352
 30
0.0
 40
3.175
  0
CIRCLE
  5
8B
330
1F
100
AcDbEntity
  8
INTERIOR_LOOPS
  6
CONTINUOUS
 62
     3
100
AcDbCircle
 10
28.3960023542
 20
-145.2507471678
 30
0.0
 40
3.175
  0
CIRCLE
  5
8C
330
1F
100
AcDbEntity
  8
INTERIOR_LOOPS
  6
CONTINUOUS
 62
     3
100
AcDbCircle
 10
28.3960023542
 20
-154.4212283005
 30
0.0
 40
3.175
  0
CIRCLE
  5
8D
330
1F
100
AcDbEntity
  8
INTERIOR_LOOPS
  6
CONTINUOUS
 62
     3
100
AcDbCircle
 10
28.3960023542
 20
-163.5917094331
 30
0.0
 40
3.175
  0
CIRCLE
  5
8E
330
1F
100
AcDbEntity
  8
INTERIOR_LOOPS
  6
CONTINUOUS
 62
     3
100
AcDbCircle
 10
28.3960023542
 20
-172.7621905657
 30
0.0
 40
3.175
  0
CIRCLE
  5
8F
330
1F
100
AcDbEntity
  8
INTERIOR_LOOPS
  6
CONTINUOUS
 62
     3
100
AcDbCircle
 10
38.1184298529
 20
47.329356617
 30
0.0
 40
3.175
  0
CIRCLE
  5
90
330
1F
100
AcDbEntity
  8
INTERIOR_LOOPS
  6
CONTINUOUS
 62
     3
100
AcDbCircle
 10
38.1184298529
 20
38.1588754844
 30
0.0
 40
3.175
  0
CIRCLE
  5
91
330
1F
100
AcDbEntity
  8
INTERIOR_LOOPS
  6
CONTINUOUS
 62
     3
100
AcDbCircle
 10
38.1184298529
 20
28.9883943518
 30
0.0
 40
3.175
  0
CIRCLE
  5
92
330
1F
100
AcDbEntity
  8
INTERIOR_LOOPS
  6
CONTINUOUS
 62
     3
100
AcDbCircle
 10
38.1184298529
 20
19.8179132192
 30
0.0
 40
3.175
  0
CIRCLE
  5
93
330
1F
100
AcDbEntity
  8
INTERIOR_LOOPS
  6
CONTINUOUS
 62
     3
100
AcDbCircle
 10
38.1184298529
 20
10.6474320866
 30
0.0
 40
3.175
  0
CIRCLE
  5
94
330
1F
100
AcDbEntity
  8
INTERIOR_LOOPS
  6
CONTINUOUS
 62
     3
100
AcDbCircle
 10
38.1184298529
 20
-90.2278603722
 30
0.0
 40
3.175
  0
CIRCLE
  5
95
330
1F
100
AcDbEntity
  8
INTERIOR_LOOPS
  6
CONTINUOUS
 62
     3
100
AcDbCircle
 10
38.1184298529
 20
-99.3983415048
 30
0.0
 40
3.175
  0
CIRCLE
  5
96
330
1F
100
AcDbEntity
  8
INTERIOR_LOOPS
  6
CONTINUOUS
 62
     3
100
AcDbCircle
 10
38.1184298529
 20
-108.5688226374
 30
0.0
 40
3.175
  0
CIRCLE
  5
97
330
1F
100
AcDbEntity
  8
INTERIOR_LOOPS
  6
CONTINUOUS
 62
     3
100
AcDbCircle
 10
38.1184298529
 20
-117.73930377
 30
0.0
 40
3.175
  0
CIRCLE
  5
98
330
1F
100
AcDbEntity
  8
INTERIOR_LOOPS
  6
CONTINUOUS
 62
     3
100
AcDbCircle
 10
38.1184298529
 20
-126.9097849026
 30
0.0
 40
3.175
  0
CIRCLE
  5
99
330
1F
100
AcDbEntity
  8
INTERIOR_LOOPS
  6
CONTINUOUS
 62
     3
100
AcDbCircle
 10
38.1184298529
 20
-136.0802660352
 30
0.0
 40
3.175
  0
CIRCLE
  5
9A
330
1F
100
AcDbEntity
  8
INTERIOR_LOOPS
  6
CONTINUOUS
 62
     3
100
AcDbCircle
 10
38.1184298529
 20
-145.2507471678
 30
0.0
 40
3.175
  0
CIRCLE
  5
9B
330
1F
100
AcDbEntity
  8
INTERIOR_LOOPS
  6
CONTINUOUS
 62
     3
100
AcDbCircle
 10
38.1184298529
 20
-154.4212283005
 30
0.0
 40
3.175
  0
CIRCLE
  5
9C
330
1F
100
AcDbEntity
  8
INTERIOR_LOOPS
  6
CONTINUOUS
 62
     3
100
AcDbCircle
 10
38.1184298529
 20
-163.5917094331
 30
0.0
 40
3.175
  0
CIRCLE
  5
9D
330
1F
100
AcDbEntity
  8
INTERIOR_LOOPS
  6
CONTINUOUS
 62
     3
100
AcDbCircle
 10
38.1184298529
 20
-172.7621905657
 30
0.0
 40
3.175
  0
CIRCLE
  5
9E
330
1F
100
AcDbEntity
  8
INTERIOR_LOOPS
  6
CONTINUOUS
 62
     3
100
AcDbCircle
 10
47.8408573516
 20
47.329356617
 30
0.0
 40
3.175
  0
CIRCLE
  5
9F
330
1F
100
AcDbEntity
  8
INTERIOR_LOOPS
  6
CONTINUOUS
 62
     3
100
AcDbCircle
 10
47.8408573516
 20
38.1588754844
 30
0.0
 40
3.175
  0
CIRCLE
  5
A0
330
1F
100
AcDbEntity
  8
INTERIOR_LOOPS
  6
CONTINUOUS
 62
     3
100
AcDbCircle
 10
47.8408573516
 20
28.9883943518
 30
0.0
 40
3.175
  0
CIRCLE
  5
A1
330
1F
100
AcDbEntity
  8
INTERIOR_LOOPS
  6
CONTINUOUS
 62
     3
100
AcDbCircle
 10
47.8408573516
 20
19.8179132192
 30
0.0
 40
3.175
  0
CIRCLE
  5
A2
330
1F
100
AcDbEntity
  8
INTERIOR_LOOPS
  6
CONTINUOUS
 62
     3
100
AcDbCircle
 10
47.8408573516
 20
10.6474320866
 30
0.0
 40
3.175
  0
CIRCLE
  5
A3
330
1F
100
AcDbEntity
  8
INTERIOR_LOOPS
  6
CONTINUOUS
 62
     3
100
AcDbCircle
 10
47.8408573516
 20
-90.2278603722
 30
0.0
 40
3.175
  0
CIRCLE
  5
A4
330
1F
100
AcDbEntity
  8
INTERIOR_LOOPS
  6
CONTINUOUS
 62
     3
100
AcDbCircle
 10
47.8408573516
 20
-99.3983415048
 30
0.0
 40
3.175
  0
CIRCLE
  5
A5
330
1F
100
AcDbEntity
  8
INTERIOR_LOOPS
  6
CONTINUOUS
 62
     3
100
AcDbCircle
 10
47.8408573516
 20
-108.5688226374
 30
0.0
 40
3.175
  0
CIRCLE
  5
A6
330
1F
100
AcDbEntity
  8
INTERIOR_LOOPS
  6
CONTINUOUS
 62
     3
100
AcDbCircle
 10
47.8408573516
 20
-117.73930377
 30
0.0
 40
3.175
  0
CIRCLE
  5
A7
330
1F
100
AcDbEntity
  8
INTERIOR_LOOPS
  6
CONTINUOUS
 62
     3
100
AcDbCircle
 10
47.8408573516
 20
-126.9097849026
 30
0.0
 40
3.175
  0
CIRCLE
  5
A8
330
1F
100
AcDbEntity
  8
INTERIOR_LOOPS
  6
CONTINUOUS
 62
     3
100
AcDbCircle
 10
47.8408573516
 20
-136.0802660352
 30
0.0
 40
3.175
  0
CIRCLE
  5
A9
330
1F
100
AcDbEntity
  8
INTERIOR_LOOPS
  6
CONTINUOUS
 62
     3
100
AcDbCircle
 10
47.8408573516
 20
-145.2507471678
 30
0.0
 40
3.175
  0
CIRCLE
  5
AA
330
1F
100
AcDbEntity
  8
INTERIOR_LOOPS
  6
CONTINUOUS
 62
     3
100
AcDbCircle
 10
47.8408573516
 20
-154.4212283005
 30
0.0
 40
3.175
  0
CIRCLE
  5
AB
330
1F
100
AcDbEntity
  8
INTERIOR_LOOPS
  6
CONTINUOUS
 62
     3
100
AcDbCircle
 10
47.8408573516
 20
-163.5917094331
 30
0.0
 40
3.175
  0
CIRCLE
  5
AC
330
1F
100
AcDbEntity
  8
INTERIOR_LOOPS
  6
CONTINUOUS
 62
     3
100
AcDbCircle
 10
47.8408573516
 20
-172.7621905657
 30
0.0
 40
3.175
  0
CIRCLE
  5
AD
330
1F
100
AcDbEntity
  8
INTERIOR_LOOPS
  6
CONTINUOUS
 62
     3
100
AcDbCircle
 10
47.8408573516
 20
-181.9326716983
 30
0.0
 40
3.175
  0
CIRCLE
  5
AE
330
1F
100
AcDbEntity
  8
INTERIOR_LOOPS
  6
CONTINUOUS
 62
     3
100
AcDbCircle
 10
57.5632848503
 20
47.329356617
 30
0.0
 40
3.175
  0
CIRCLE
  5
AF
330
1F
100
AcDbEntity
  8
INTERIOR_LOOPS
  6
CONTINUOUS
 62
     3
100
AcDbCircle
 10
57.5632848503
 20
38.1588754844
 30
0.0
 40
3.175
  0
CIRCLE
  5
B0
330
1F
100
AcDbEntity
  8
INTERIOR_LOOPS
  6
CONTINUOUS
 62
     3
100
AcDbCircle
 10
57.5632848503
 20
28.9883943518
 30
0.0
 40
3.175
  0
CIRCLE
  5
B1
330
1F
100
AcDbEntity
  8
INTERIOR_LOOPS
  6
CONTINUOUS
 62
     3
100
AcDbCircle
 10
57.5632848503
 20
19.8179132192
 30
0.0
 40
3.175
  0
CIRCLE
  5
B2
330
1F
100
AcDbEntity
  8
INTERIOR_LOOPS
  6
CONTINUOUS
 62
     3
100
AcDbCircle
 10
57.5632848503
 20
10.6474320866
 30
0.0
 40
3.175
  0
CIRCLE
  5
B3
330
1F
100
AcDbEntity
  8
INTERIOR_LOOPS
  6
CONTINUOUS
 62
     3
100
AcDbCircle
 10
57.5632848503
 20
-90.2278603722
 30
0.0
 40
3.175
  0
CIRCLE
  5
B4
330
1F
100
AcDbEntity
  8
INTERIOR_LOOPS
  6
CONTINUOUS
 62
     3
100
AcDbCircle
 10
57.5632848503
 20
-99.3983415048
 30
0.0
 40
3.175
  0
CIRCLE
  5
B5
330
1F
100
AcDbEntity
  8
INTERIOR_LOOPS
  6
CONTINUOUS
 62
     3
100
AcDbCircle
 10
57.5632848503
 20
-108.5688226374
 30
0.0
 40
3.175
  0
CIRCLE
  5
B6
330
1F
100
AcDbEntity
  8
INTERIOR_LOOPS
  6
CONTINUOUS
 62
     3
100
AcDbCircle
 10
57.5632848503
 20
-117.73930377
 30
0.0
 40
3.175
  0
CIRCLE
  5
B7
330
1F
100
AcDbEntity
  8
INTERIOR_LOOPS
  6
CONTINUOUS
 62
     3
100
AcDbCircle
 10
57.5632848503
 20
-126.9097849026
 30
0.0
 40
3.175
  0
CIRCLE
  5
B8
330
1F
100
AcDbEntity
  8
INTERIOR_LOOPS
  6
CONTINUOUS
 62
     3
100
AcDbCircle
 10
57.5632848503
 20
-136.0802660352
 30
0.0
 40
3.175
  0
CIRCLE
  5
B9
330
1F
100
AcDbEntity
  8
INTERIOR_LOOPS
  6
CONTINUOUS
 62
     3
100
AcDbCircle
 10
57.5632848503
 20
-145.2507471678
 30
0.0
 40
3.175
  0
CIRCLE
  5
BA
330
1F
100
AcDbEntity
  8
INTERIOR_LOOPS
  6
CONTINUOUS
 62
     3
100
AcDbCircle
 10
57.5632848503
 20
-154.4212283005
 30
0.0
 40
3.175
  0
CIRCLE
  5
BB
330
1F
100
AcDbEntity
  8
INTERIOR_LOOPS
  6
CONTINUOUS
 62
     3
100
AcDbCircle
 10
57.5632848503
 20
-163.5917094331
 30
0.0
 40
3.175
  0
CIRCLE
  5
BC
330
1F
100
AcDbEntity
  8
INTERIOR_LOOPS
  6
CONTINUOUS
 62
     3
100
AcDbCircle
 10
57.5632848503
 20
-172.7621905657
 30
0.0
 40
3.175
  0
CIRCLE
  5
BD
330
1F
100
AcDbEntity
  8
INTERIOR_LOOPS
  6
CONTINUOUS
 62
     3
100
AcDbCircle
 10
57.5632848503
 20
-181.9326716983
 30
0.0
 40
3.175
  0
CIRCLE
  5
BE
330
1F
100
AcDbEntity
  8
INTERIOR_LOOPS
  6
CONTINUOUS
 62
     3
100
AcDbCircle
 10
67.285712349
 20
47.329356617
 30
0.0
 40
3.175
  0
CIRCLE
  5
BF
330
1F
100
AcDbEntity
  8
INTERIOR_LOOPS
  6
CONTINUOUS
 62
     3
100
AcDbCircle
 10
67.285712349
 20
38.1588754844
 30
0.0
 40
3.175
  0
CIRCLE
  5
C0
330
1F
100
AcDbEntity
  8
INTERIOR_LOOPS
  6
CONTINUOUS
 62
     3
100
AcDbCircle
 10
67.285712349
 20
28.9883943518
 30
0.0
 40
3.175
  0
CIRCLE
  5
C1
330
1F
100
AcDbEntity
  8
INTERIOR_LOOPS
  6
CONTINUOUS
 62
     3
100
AcDbCircle
 10
67.285712349
 20
19.8179132192
 30
0.0
 40
3.175
  0
CIRCLE
  5
C2
330
1F
100
AcDbEntity
  8
INTERIOR_LOOPS
  6
CONTINUOUS
 62
     3
100
AcDbCircle
 10
67.285712349
 20
10.6474320866
 30
0.0
 40
3.175
  0
CIRCLE
  5
C3
330
1F
100
AcDbEntity
  8
INTERIOR_LOOPS
  6
CONTINUOUS
 62
     3
100
AcDbCircle
 10
67.285712349
 20
-108.5688226374
 30
0.0
 40
3.175
  0
CIRCLE
  5
C4
330
1F
100
AcDbEntity
  8
INTERIOR_LOOPS
  6
CONTINUOUS
 62
     3
100
AcDbCircle
 10
67.285712349
 20
-117.73930377
 30
0.0
 40
3.175
  0
CIRCLE
  5
C5
330
1F
100
AcDbEntity
  8
INTERIOR_LOOPS
  6
CONTINUOUS
 62
     3
100
AcDbCircle
 10
67.285712349
 20
-126.9097849026
 30
0.0
 40
3.175
  0
CIRCLE
  5
C6
330
1F
100
AcDbEntity
  8
INTERIOR_LOOPS
  6
CONTINUOUS
 62
     3
100
AcDbCircle
 10
67.285712349
 20
-136.0802660352
 30
0.0
 40
3.175
  0
CIRCLE
  5
C7
330
1F
100
AcDbEntity
  8
INTERIOR_LOOPS
  6
CONTINUOUS
 62
     3
100
AcDbCircle
 10
67.285712349
 20
-145.2507471678
 30
0.0
 40
3.175
  0
CIRCLE
  5
C8
330
1F
100
AcDbEntity
  8
INTERIOR_LOOPS
  6
CONTINUOUS
 62
     3
100
AcDbCircle
 10
67.285712349
 20
-154.4212283005
 30
0.0
 40
3.175
  0
CIRCLE
  5
C9
330
1F
100
AcDbEntity
  8
INTERIOR_LOOPS
  6
CONTINUOUS
 62
     3
100
AcDbCircle
 10
67.285712349
 20
-163.5917094331
 30
0.0
 40
3.175
  0
CIRCLE
  5
CA
330
1F
100
AcDbEntity
  8
INTERIOR_LOOPS
  6
CONTINUOUS
 62
     3
100
AcDbCircle
 10
67.285712349
 20
-172.7621905657
 30
0.0
 40
3.175
  0
CIRCLE
  5
CB
330
1F
100
AcDbEntity
  8
INTERIOR_LOOPS
  6
CONTINUOUS
 62
     3
100
AcDbCircle
 10
67.285712349
 20
-181.9326716983
 30
0.0
 40
3.175
  0
CIRCLE
  5
CC
330
1F
100
AcDbEntity
  8
INTERIOR_LOOPS
  6
CONTINUOUS
 62
     3
100
AcDbCircle
 10
77.0081398477
 20
47.329356617
 30
0.0
 40
3.175
  0
CIRCLE
  5
CD
330
1F
100
AcDbEntity
  8
INTERIOR_LOOPS
  6
CONTINUOUS
 62
     3
100
AcDbCircle
 10
77.0081398477
 20
38.1588754844
 30
0.0
 40
3.175
  0
CIRCLE
  5
CE
330
1F
100
AcDbEntity
  8
INTERIOR_LOOPS
  6
CONTINUOUS
 62
     3
100
AcDbCircle
 10
77.0081398477
 20
28.9883943518
 30
0.0
 40
3.175
  0
CIRCLE
  5
CF
330
1F
100
AcDbEntity
  8
INTERIOR_LOOPS
  6
CONTINUOUS
 62
     3
100
AcDbCircle
 10
77.0081398477
 20
19.8179132192
 30
0.0
 40
3.175
  0
CIRCLE
  5
D0
330
1F
100
AcDbEntity
  8
INTERIOR_LOOPS
  6
CONTINUOUS
 62
     3
100
AcDbCircle
 10
77.0081398477
 20
10.6474320866
 30
0.0
 40
3.175
  0
CIRCLE
  5
D1
330
1F
100
AcDbEntity
  8
INTERIOR_LOOPS
  6
CONTINUOUS
 62
     3
100
AcDbCircle
 10
77.0081398477
 20
-108.5688226374
 30
0.0
 40
3.175
  0
CIRCLE
  5
D2
330
1F
100
AcDbEntity
  8
INTERIOR_LOOPS
  6
CONTINUOUS
 62
     3
100
AcDbCircle
 10
77.0081398477
 20
-117.73930377
 30
0.0
 40
3.175
  0
CIRCLE
  5
D3
330
1F
100
AcDbEntity
  8
INTERIOR_LOOPS
  6
CONTINUOUS
 62
     3
100
AcDbCircle
 10
77.0081398477
 20
-126.9097849026
 30
0.0
 40
3.175
  0
CIRCLE
  5
D4
330
1F
100
AcDbEntity
  8
INTERIOR_LOOPS
  6
CONTINUOUS
 62
     3
100
AcDbCircle
 10
77.0081398477
 20
-136.0802660352
 30
0.0
 40
3.175
  0
CIRCLE
  5
D5
330
1F
100
AcDbEntity
  8
INTERIOR_LOOPS
  6
CONTINUOUS
 62
     3
100
AcDbCircle
 10
77.0081398477
 20
-145.2507471678
 30
0.0
 40
3.175
  0
CIRCLE
  5
D6
330
1F
100
AcDbEntity
  8
INTERIOR_LOOPS
  6
CONTINUOUS
 62
     3
100
AcDbCircle
 10
77.0081398477
 20
-154.4212283005
 30
0.0
 40
3.175
  0
CIRCLE
  5
D7
330
1F
100
AcDbEntity
  8
INTERIOR_LOOPS
  6
CONTINUOUS
 62
     3
100
AcDbCircle
 10
77.0081398477
 20
-163.5917094331
 30
0.0
 40
3.175
  0
CIRCLE
  5
D8
330
1F
100
AcDbEntity
  8
INTERIOR_LOOPS
  6
CONTINUOUS
 62
     3
100
AcDbCircle
 10
77.0081398477
 20
-172.7621905657
 30
0.0
 40
3.175
  0
CIRCLE
  5
D9
330
1F
100
AcDbEntity
  8
INTERIOR_LOOPS
  6
CONTINUOUS
 62
     3
100
AcDbCircle
 10
77.0081398477
 20
-181.9326716983
 30
0.0
 40
3.175
  0
CIRCLE
  5
DA
330
1F
100
AcDbEntity
  8
INTERIOR_LOOPS
  6
CONTINUOUS
 62
     3
100
AcDbCircle
 10
86.7305673465
 20
47.329356617
 30
0.0
 40
3.175
  0
CIRCLE
  5
DB
330
1F
100
AcDbEntity
  8
INTERIOR_LOOPS
  6
CONTINUOUS
 62
     3
100
AcDbCircle
 10
86.7305673465
 20
38.1588754844
 30
0.0
 40
3.175
  0
CIRCLE
  5
DC
330
1F
100
AcDbEntity
  8
INTERIOR_LOOPS
  6
CONTINUOUS
 62
     3
100
AcDbCircle
 10
86.7305673465
 20
28.9883943518
 30
0.0
 40
3.175
  0
CIRCLE
  5
DD
330
1F
100
AcDbEntity
  8
INTERIOR_LOOPS
  6
CONTINUOUS
 62
     3
100
AcDbCircle
 10
86.7305673465
 20
-108.5688226374
 30
0.0
 40
3.175
  0
CIRCLE
  5
DE
330
1F
100
AcDbEntity
  8
INTERIOR_LOOPS
  6
CONTINUOUS
 62
     3
100
AcDbCircle
 10
86.7305673465
 20
-117.73930377
 30
0.0
 40
3.175
  0
CIRCLE
  5
DF
330
1F
100
AcDbEntity
  8
INTERIOR_LOOPS
  6
CONTINUOUS
 62
     3
100
AcDbCircle
 10
86.7305673465
 20
-126.9097849026
 30
0.0
 40
3.175
  0
CIRCLE
  5
E0
330
1F
100
AcDbEntity
  8
INTERIOR_LOOPS
  6
CONTINUOUS
 62
     3
100
AcDbCircle
 10
86.7305673465
 20
-136.0802660352
 30
0.0
 40
3.175
  0
CIRCLE
  5
E1
330
1F
100
AcDbEntity
  8
INTERIOR_LOOPS
  6
CONTINUOUS
 62
     3
100
AcDbCircle
 10
86.7305673465
 20
-145.2507471678
 30
0.0
 40
3.175
  0
CIRCLE
  5
E2
330
1F
100
AcDbEntity
  8
INTERIOR_LOOPS
  6
CONTINUOUS
 62
     3
100
AcDbCircle
 10
86.7305673465
 20
-154.4212283005
 30
0.0
 40
3.175
  0
CIRCLE
  5
E3
330
1F
100
AcDbEntity
  8
INTERIOR_LOOPS
  6
CONTINUOUS
 62
     3
100
AcDbCircle
 10
86.7305673465
 20
-163.5917094331
 30
0.0
 40
3.175
  0
CIRCLE
  5
E4
330
1F
100
AcDbEntity
  8
INTERIOR_LOOPS
  6
CONTINUOUS
 62
     3
100
AcDbCircle
 10
86.7305673465
 20
-172.7621905657
 30
0.0
 40
3.175
  0
CIRCLE
  5
E5
330
1F
100
AcDbEntity
  8
INTERIOR_LOOPS
  6
CONTINUOUS
 62
     3
100
AcDbCircle
 10
86.7305673465
 20
-181.9326716983
 30
0.0
 40
3.175
  0
CIRCLE
  5
E6
330
1F
100
AcDbEntity
  8
INTERIOR_LOOPS
  6
CONTINUOUS
 62
     3
100
AcDbCircle
 10
96.4529948452
 20
47.329356617
 30
0.0
 40
3.175
  0
CIRCLE
  5
E7
330
1F
100
AcDbEntity
  8
INTERIOR_LOOPS
  6
CONTINUOUS
 62
     3
100
AcDbCircle
 10
96.4529948452
 20
38.1588754844
 30
0.0
 40
3.175
  0
CIRCLE
  5
E8
330
1F
100
AcDbEntity
  8
INTERIOR_LOOPS
  6
CONTINUOUS
 62
     3
100
AcDbCircle
 10
96.4529948452
 20
28.9883943518
 30
0.0
 40
3.175
  0
CIRCLE
  5
E9
330
1F
100
AcDbEntity
  8
INTERIOR_LOOPS
  6
CONTINUOUS
 62
     3
100
AcDbCircle
 10
96.4529948452
 20
-99.3983415048
 30
0.0
 40
3.175
  0
CIRCLE
  5
EA
330
1F
100
AcDbEntity
  8
INTERIOR_LOOPS
  6
CONTINUOUS
 62
     3
100
AcDbCircle
 10
96.4529948452
 20
-108.5688226374
 30
0.0
 40
3.175
  0
CIRCLE
  5
EB
330
1F
100
AcDbEntity
  8
INTERIOR_LOOPS
  6
CONTINUOUS
 62
     3
100
AcDbCircle
 10
96.4529948452
 20
-117.73930377
 30
0.0
 40
3.175
  0
CIRCLE
  5
EC
330
1F
100
AcDbEntity
  8
INTERIOR_LOOPS
  6
CONTINUOUS
 62
     3
100
AcDbCircle
 10
96.4529948452
 20
-126.9097849026
 30
0.0
 40
3.175
  0
CIRCLE
  5
ED
330
1F
100
AcDbEntity
  8
INTERIOR_LOOPS
  6
CONTINUOUS
 62
     3
100
AcDbCircle
 10
96.4529948452
 20
-136.0802660352
 30
0.0
 40
3.175
  0
CIRCLE
  5
EE
330
1F
100
AcDbEntity
  8
INTERIOR_LOOPS
  6
CONTINUOUS
 62
     3
100
AcDbCircle
 10
96.4529948452
 20
-145.2507471678
 30
0.0
 40
3.175
  0
CIRCLE
  5
EF
330
1F
100
AcDbEntity
  8
INTERIOR_LOOPS
  6
CONTINUOUS
 62
     3
100
AcDbCircle
 10
96.4529948452
 20
-154.4212283005
 30
0.0
 40
3.175
  0
CIRCLE
  5
F0
330
1F
100
AcDbEntity
  8
INTERIOR_LOOPS
  6
CONTINUOUS
 62
     3
100
AcDbCircle
 10
96.4529948452
 20
-163.5917094331
 30
0.0
 40
3.175
  0
CIRCLE
  5
F1
330
1F
100
AcDbEntity
  8
INTERIOR_LOOPS
  6
CONTINUOUS
 62
     3
100
AcDbCircle
 10
96.4529948452
 20
-172.7621905657
 30
0.0
 40
3.175
  0
CIRCLE
  5
F2
330
1F
100
AcDbEntity
  8
INTERIOR_LOOPS
  6
CONTINUOUS
 62
     3
100
AcDbCircle
 10
96.4529948452
 20
-181.9326716983
 30
0.0
 40
3.175
  0
CIRCLE
  5
F3
330
1F
100
AcDbEntity
  8
INTERIOR_LOOPS
  6
CONTINUOUS
 62
     3
100
AcDbCircle
 10
106.1754223439
 20
47.329356617
 30
0.0
 40
3.175
  0
CIRCLE
  5
F4
330
1F
100
AcDbEntity
  8
INTERIOR_LOOPS
  6
CONTINUOUS
 62
     3
100
AcDbCircle
 10
106.1754223439
 20
38.1588754844
 30
0.0
 40
3.175
  0
CIRCLE
  5
F5
330
1F
100
AcDbEntity
  8
INTERIOR_LOOPS
  6
CONTINUOUS
 62
     3
100
AcDbCircle
 10
106.1754223439
 20
28.9883943518
 30
0.0
 40
3.175
  0
CIRCLE
  5
F6
330
1F
100
AcDbEntity
  8
INTERIOR_LOOPS
  6
CONTINUOUS
 62
     3
100
AcDbCircle
 10
106.1754223439
 20
-90.2278603722
 30
0.0
 40
3.175
  0
CIRCLE
  5
F7
330
1F
100
AcDbEntity
  8
INTERIOR_LOOPS
  6
CONTINUOUS
 62
     3
100
AcDbCircle
 10
106.1754223439
 20
-99.3983415048
 30
0.0
 40
3.175
  0
CIRCLE
  5
F8
330
1F
100
AcDbEntity
  8
INTERIOR_LOOPS
  6
CONTINUOUS
 62
     3
100
AcDbCircle
 10
106.1754223439
 20
-108.5688226374
 30
0.0
 40
3.175
  0
CIRCLE
  5
F9
330
1F
100
AcDbEntity
  8
INTERIOR_LOOPS
  6
CONTINUOUS
 62
     3
100
AcDbCircle
 10
106.1754223439
 20
-117.73930377
 30
0.0
 40
3.175
  0
CIRCLE
  5
FA
330
1F
100
AcDbEntity
  8
INTERIOR_LOOPS
  6
CONTINUOUS
 62
     3
100
AcDbCircle
 10
106.1754223439
 20
-126.9097849026
 30
0.0
 40
3.175
  0
CIRCLE
  5
FB
330
1F
100
AcDbEntity
  8
INTERIOR_LOOPS
  6
CONTINUOUS
 62
     3
100
AcDbCircle
 10
106.1754223439
 20
-136.0802660352
 30
0.0
 40
3.175
  0
CIRCLE
  5
FC
330
1F
100
AcDbEntity
  8
INTERIOR_LOOPS
  6
CONTINUOUS
 62
     3
100
AcDbCircle
 10
106.1754223439
 20
-145.2507471678
 30
0.0
 40
3.175
  0
CIRCLE
  5
FD
330
1F
100
AcDbEntity
  8
INTERIOR_LOOPS
  6
CONTINUOUS
 62
     3
100
AcDbCircle
 10
106.1754223439
 20
-154.4212283005
 30
0.0
 40
3.175
  0
CIRCLE
  5
FE
330
1F
100
AcDbEntity
  8
INTERIOR_LOOPS
  6
CONTINUOUS
 62
     3
100
AcDbCircle
 10
106.1754223439
 20
-163.5917094331
 30
0.0
 40
3.175
  0
CIRCLE
  5
FF
330
1F
100
AcDbEntity
  8
INTERIOR_LOOPS
  6
CONTINUOUS
 62
     3
100
AcDbCircle
 10
106.1754223439
 20
-172.7621905657
 30
0.0
 40
3.175
  0
CIRCLE
  5
100
330
1F
100
AcDbEntity
  8
INTERIOR_LOOPS
  6
CONTINUOUS
 62
     3
100
AcDbCircle
 10
106.1754223439
 20
-181.9326716983
 30
0.0
 40
3.175
  0
CIRCLE
  5
101
330
1F
100
AcDbEntity
  8
INTERIOR_LOOPS
  6
CONTINUOUS
 62
     3
100
AcDbCircle
 10
115.8978498426
 20
47.329356617
 30
0.0
 40
3.175
  0
CIRCLE
  5
102
330
1F
100
AcDbEntity
  8
INTERIOR_LOOPS
  6
CONTINUOUS
 62
     3
100
AcDbCircle
 10
115.8978498426
 20
38.1588754844
 30
0.0
 40
3.175
  0
CIRCLE
  5
103
330
1F
100
AcDbEntity
  8
INTERIOR_LOOPS
  6
CONTINUOUS
 62
     3
100
AcDbCircle
 10
115.8978498426
 20
28.9883943518
 30
0.0
 40
3.175
  0
CIRCLE
  5
104
330
1F
100
AcDbEntity
  8
INTERIOR_LOOPS
  6
CONTINUOUS
 62
     3
100
AcDbCircle
 10
115.8978498426
 20
19.8179132192
 30
0.0
 40
3.175
  0
CIRCLE
  5
105
330
1F
100
AcDbEntity
  8
INTERIOR_LOOPS
  6
CONTINUOUS
 62
     3
100
AcDbCircle
 10
115.8978498426
 20
10.6474320866
 30
0.0
 40
3.175
  0
CIRCLE
  5
106
330
1F
100
AcDbEntity
  8
INTERIOR_LOOPS
  6
CONTINUOUS
 62
     3
100
AcDbCircle
 10
115.8978498426
 20
1.476950954
 30
0.0
 40
3.175
  0
CIRCLE
  5
107
330
1F
100
AcDbEntity
  8
INTERIOR_LOOPS
  6
CONTINUOUS
 62
     3
100
AcDbCircle
 10
115.8978498426
 20
-81.0573792395
 30
0.0
 40
3.175
  0
CIRCLE
  5
108
330
1F
100
AcDbEntity
  8
INTERIOR_LOOPS
  6
CONTINUOUS
 62
     3
100
AcDbCircle
 10
115.8978498426
 20
-90.2278603722
 30
0.0
 40
3.175
  0
CIRCLE
  5
109
330
1F
100
AcDbEntity
  8
INTERIOR_LOOPS
  6
CONTINUOUS
 62
     3
100
AcDbCircle
 10
115.8978498426
 20
-99.3983415048
 30
0.0
 40
3.175
  0
CIRCLE
  5
10A
330
1F
100
AcDbEntity
  8
INTERIOR_LOOPS
  6
CONTINUOUS
 62
     3
100
AcDbCircle
 10
115.8978498426
 20
-108.5688226374
 30
0.0
 40
3.175
  0
CIRCLE
  5
10B
330
1F
100
AcDbEntity
  8
INTERIOR_LOOPS
  6
CONTINUOUS
 62
     3
100
AcDbCircle
 10
115.8978498426
 20
-117.73930377
 30
0.0
 40
3.175
  0
CIRCLE
  5
10C
330
1F
100
AcDbEntity
  8
INTERIOR_LOOPS
  6
CONTINUOUS
 62
     3
100
AcDbCircle
 10
115.8978498426
 20
-126.9097849026
 30
0.0
 40
3.175
  0
CIRCLE
  5
10D
330
1F
100
AcDbEntity
  8
INTERIOR_LOOPS
  6
CONTINUOUS
 62
     3
100
AcDbCircle
 10
115.8978498426
 20
-136.0802660352
 30
0.0
 40
3.175
  0
CIRCLE
  5
10E
330
1F
100
AcDbEntity
  8
INTERIOR_LOOPS
  6
CONTINUOUS
 62
     3
100
AcDbCircle
 10
115.8978498426
 20
-145.2507471678
 30
0.0
 40
3.175
  0
CIRCLE
  5
10F
330
1F
100
AcDbEntity
  8
INTERIOR_LOOPS
  6
CONTINUOUS
 62
     3
100
AcDbCircle
 10
115.8978498426
 20
-154.4212283005
 30
0.0
 40
3.175
  0
CIRCLE
  5
110
330
1F
100
AcDbEntity
  8
INTERIOR_LOOPS
  6
CONTINUOUS
 62
     3
100
AcDbCircle
 10
115.8978498426
 20
-163.5917094331
 30
0.0
 40
3.175
  0
CIRCLE
  5
111
330
1F
100
AcDbEntity
  8
INTERIOR_LOOPS
  6
CONTINUOUS
 62
     3
100
AcDbCircle
 10
125.6202773413
 20
47.329356617
 30
0.0
 40
3.175
  0
CIRCLE
  5
112
330
1F
100
AcDbEntity
  8
INTERIOR_LOOPS
  6
CONTINUOUS
 62
     3
100
AcDbCircle
 10
125.6202773413
 20
38.1588754844
 30
0.0
 40
3.175
  0
CIRCLE
  5
113
330
1F
100
AcDbEntity
  8
INTERIOR_LOOPS
  6
CONTINUOUS
 62
     3
100
AcDbCircle
 10
125.6202773413
 20
28.9883943518
 30
0.0
 40
3.175
  0
CIRCLE
  5
114
330
1F
100
AcDbEntity
  8
INTERIOR_LOOPS
  6
CONTINUOUS
 62
     3
100
AcDbCircle
 10
125.6202773413
 20
19.8179132192
 30
0.0
 40
3.175
  0
CIRCLE
  5
115
330
1F
100
AcDbEntity
  8
INTERIOR_LOOPS
  6
CONTINUOUS
 62
     3
100
AcDbCircle
 10
125.6202773413
 20
10.6474320866
 30
0.0
 40
3.175
  0
CIRCLE
  5
116
330
1F
100
AcDbEntity
  8
INTERIOR_LOOPS
  6
CONTINUOUS
 62
     3
100
AcDbCircle
 10
125.6202773413
 20
1.476950954
 30
0.0
 40
3.175
  0
CIRCLE
  5
117
330
1F
100
AcDbEntity
  8
INTERIOR_LOOPS
  6
CONTINUOUS
 62
     3
100
AcDbCircle
 10
125.6202773413
 20
-7.6935301786
 30
0.0
 40
3.175
  0
CIRCLE
  5
118
330
1F
100
AcDbEntity
  8
INTERIOR_LOOPS
  6
CONTINUOUS
 62
     3
100
AcDbCircle
 10
125.6202773413
 20
-71.8868981069
 30
0.0
 40
3.175
  0
CIRCLE
  5
119
330
1F
100
AcDbEntity
  8
INTERIOR_LOOPS
  6
CONTINUOUS
 62
     3
100
AcDbCircle
 10
125.6202773413
 20
-81.0573792395
 30
0.0
 40
3.175
  0
CIRCLE
  5
11A
330
1F
100
AcDbEntity
  8
INTERIOR_LOOPS
  6
CONTINUOUS
 62
     3
100
AcDbCircle
 10
125.6202773413
 20
-90.2278603722
 30
0.0
 40
3.175
  0
CIRCLE
  5
11B
330
1F
100
AcDbEntity
  8
INTERIOR_LOOPS
  6
CONTINUOUS
 62
     3
100
AcDbCircle
 10
125.6202773413
 20
-99.3983415048
 30
0.0
 40
3.175
  0
CIRCLE
  5
11C
330
1F
100
AcDbEntity
  8
INTERIOR_LOOPS
  6
CONTINUOUS
 62
     3
100
AcDbCircle
 10
125.6202773413
 20
-108.5688226374
 30
0.0
 40
3.175
  0
CIRCLE
  5
11D
330
1F
100
AcDbEntity
  8
INTERIOR_LOOPS
  6
CONTINUOUS
 62
     3
100
AcDbCircle
 10
125.6202773413
 20
-117.73930377
 30
0.0
 40
3.175
  0
CIRCLE
  5
11E
330
1F
100
AcDbEntity
  8
INTERIOR_LOOPS
  6
CONTINUOUS
 62
     3
100
AcDbCircle
 10
125.6202773413
 20
-126.9097849026
 30
0.0
 40
3.175
  0
CIRCLE
  5
11F
330
1F
100
AcDbEntity
  8
INTERIOR_LOOPS
  6
CONTINUOUS
 62
     3
100
AcDbCircle
 10
125.6202773413
 20
-136.0802660352
 30
0.0
 40
3.175
  0
CIRCLE
  5
120
330
1F
100
AcDbEntity
  8
INTERIOR_LOOPS
  6
CONTINUOUS
 62
     3
100
AcDbCircle
 10
125.6202773413
 20
-145.2507471678
 30
0.0
 40
3.175
  0
CIRCLE
  5
121
330
1F
100
AcDbEntity
  8
INTERIOR_LOOPS
  6
CONTINUOUS
 62
     3
100
AcDbCircle
 10
125.6202773413
 20
-154.4212283005
 30
0.0
 40
3.175
  0
CIRCLE
  5
122
330
1F
100
AcDbEntity
  8
INTERIOR_LOOPS
  6
CONTINUOUS
 62
     3
100
AcDbCircle
 10
135.34270484
 20
47.329356617
 30
0.0
 40
3.175
  0
CIRCLE
  5
123
330
1F
100
AcDbEntity
  8
INTERIOR_LOOPS
  6
CONTINUOUS
 62
     3
100
AcDbCircle
 10
135.34270484
 20
38.1588754844
 30
0.0
 40
3.175
  0
CIRCLE
  5
124
330
1F
100
AcDbEntity
  8
INTERIOR_LOOPS
  6
CONTINUOUS
 62
     3
100
AcDbCircle
 10
135.34270484
 20
28.9883943518
 30
0.0
 40
3.175
  0
CIRCLE
  5
125
330
1F
100
AcDbEntity
  8
INTERIOR_LOOPS
  6
CONTINUOUS
 62
     3
100
AcDbCircle
 10
135.34270484
 20
19.8179132192
 30
0.0
 40
3.175
  0
CIRCLE
  5
126
330
1F
100
AcDbEntity
  8
INTERIOR_LOOPS
  6
CONTINUOUS
 62
     3
100
AcDbCircle
 10
135.34270484
 20
10.6474320866
 30
0.0
 40
3.175
  0
CIRCLE
  5
127
330
1F
100
AcDbEntity
  8
INTERIOR_LOOPS
  6
CONTINUOUS
 62
     3
100
AcDbCircle
 10
135.34270484
 20
1.476950954
 30
0.0
 40
3.175
  0
CIRCLE
  5
128
330
1F
100
AcDbEntity
  8
INTERIOR_LOOPS
  6
CONTINUOUS
 62
     3
100
AcDbCircle
 10
135.34270484
 20
-7.6935301786
 30
0.0
 40
3.175
  0
CIRCLE
  5
129
330
1F
100
AcDbEntity
  8
INTERIOR_LOOPS
  6
CONTINUOUS
 62
     3
100
AcDbCircle
 10
135.34270484
 20
-16.8640113113
 30
0.0
 40
3.175
  0
CIRCLE
  5
12A
330
1F
100
AcDbEntity
  8
INTERIOR_LOOPS
  6
CONTINUOUS
 62
     3
100
AcDbCircle
 10
135.34270484
 20
-26.0344924439
 30
0.0
 40
3.175
  0
CIRCLE
  5
12B
330
1F
100
AcDbEntity
  8
INTERIOR_LOOPS
  6
CONTINUOUS
 62
     3
100
AcDbCircle
 10
135.34270484
 20
-62.7164169743
 30
0.0
 40
3.175
  0
CIRCLE
  5
12C
330
1F
100
AcDbEntity
  8
INTERIOR_LOOPS
  6
CONTINUOUS
 62
     3
100
AcDbCircle
 10
135.34270484
 20
-71.8868981069
 30
0.0
 40
3.175
  0
CIRCLE
  5
12D
330
1F
100
AcDbEntity
  8
INTERIOR_LOOPS
  6
CONTINUOUS
 62
     3
100
AcDbCircle
 10
135.34270484
 20
-81.0573792395
 30
0.0
 40
3.175
  0
CIRCLE
  5
12E
330
1F
100
AcDbEntity
  8
INTERIOR_LOOPS
  6
CONTINUOUS
 62
     3
100
AcDbCircle
 10
135.34270484
 20
-90.2278603722
 30
0.0
 40
3.175
  0
CIRCLE
  5
12F
330
1F
100
AcDbEntity
  8
INTERIOR_LOOPS
  6
CONTINUOUS
 62
     3
100
AcDbCircle
 10
135.34270484
 20
-99.3983415048
 30
0.0
 40
3.175
  0
CIRCLE
  5
130
330
1F
100
AcDbEntity
  8
INTERIOR_LOOPS
  6
CONTINUOUS
 62
     3
100
AcDbCircle
 10
135.34270484
 20
-108.5688226374
 30
0.0
 40
3.175
  0
CIRCLE
  5
131
330
1F
100
AcDbEntity
  8
INTERIOR_LOOPS
  6
CONTINUOUS
 62
     3
100
AcDbCircle
 10
135.34270484
 20
-117.73930377
 30
0.0
 40
3.175
  0
CIRCLE
  5
132
330
1F
100
AcDbEntity
  8
INTERIOR_LOOPS
  6
CONTINUOUS
 62
     3
100
AcDbCircle
 10
135.34270484
 20
-126.9097849026
 30
0.0
 40
3.175
  0
CIRCLE
  5
133
330
1F
100
AcDbEntity
  8
INTERIOR_LOOPS
  6
CONTINUOUS
 62
     3
100
AcDbCircle
 10
135.34270484
 20
-136.0802660352
 30
0.0
 40
3.175
  0
CIRCLE
  5
134
330
1F
100
AcDbEntity
  8
INTERIOR_LOOPS
  6
CONTINUOUS
 62
     3
100
AcDbCircle
 10
135.34270484
 20
-145.2507471678
 30
0.0
 40
3.175
  0
CIRCLE
  5
135
330
1F
100
AcDbEntity
  8
INTERIOR_LOOPS
  6
CONTINUOUS
 62
     3
100
AcDbCircle
 10
135.34270484
 20
-154.4212283005
 30
0.0
 40
3.175
  0
CIRCLE
  5
136
330
1F
100
AcDbEntity
  8
INTERIOR_LOOPS
  6
CONTINUOUS
 62
     3
100
AcDbCircle
 10
145.0651323387
 20
47.329356617
 30
0.0
 40
3.175
  0
CIRCLE
  5
137
330
1F
100
AcDbEntity
  8
INTERIOR_LOOPS
  6
CONTINUOUS
 62
     3
100
AcDbCircle
 10
145.0651323387
 20
38.1588754844
 30
0.0
 40
3.175
  0
CIRCLE
  5
138
330
1F
100
AcDbEntity
  8
INTERIOR_LOOPS
  6
CONTINUOUS
 62
     3
100
AcDbCircle
 10
145.0651323387
 20
28.9883943518
 30
0.0
 40
3.175
  0
CIRCLE
  5
139
330
1F
100
AcDbEntity
  8
INTERIOR_LOOPS
  6
CONTINUOUS
 62
     3
100
AcDbCircle
 10
145.0651323387
 20
19.8179132192
 30
0.0
 40
3.175
  0
CIRCLE
  5
13A
330
1F
100
AcDbEntity
  8
INTERIOR_LOOPS
  6
CONTINUOUS
 62
     3
100
AcDbCircle
 10
145.0651323387
 20
10.6474320866
 30
0.0
 40
3.175
  0
CIRCLE
  5
13B
330
1F
100
AcDbEntity
  8
INTERIOR_LOOPS
  6
CONTINUOUS
 62
     3
100
AcDbCircle
 10
145.0651323387
 20
1.476950954
 30
0.0
 40
3.175
  0
CIRCLE
  5
13C
330
1F
100
AcDbEntity
  8
INTERIOR_LOOPS
  6
CONTINUOUS
 62
     3
100
AcDbCircle
 10
145.0651323387
 20
-7.6935301786
 30
0.0
 40
3.175
  0
CIRCLE
  5
13D
330
1F
100
AcDbEntity
  8
INTERIOR_LOOPS
  6
CONTINUOUS
 62
     3
100
AcDbCircle
 10
145.0651323387
 20
-16.8640113113
 30
0.0
 40
3.175
  0
CIRCLE
  5
13E
330
1F
100
AcDbEntity
  8
INTERIOR_LOOPS
  6
CONTINUOUS
 62
     3
100
AcDbCircle
 10
145.0651323387
 20
-26.0344924439
 30
0.0
 40
3.175
  0
CIRCLE
  5
13F
330
1F
100
AcDbEntity
  8
INTERIOR_LOOPS
  6
CONTINUOUS
 62
     3
100
AcDbCircle
 10
145.0651323387
 20
-62.7164169743
 30
0.0
 40
3.175
  0
CIRCLE
  5
140
330
1F
100
AcDbEntity
  8
INTERIOR_LOOPS
  6
CONTINUOUS
 62
     3
100
AcDbCircle
 10
145.0651323387
 20
-71.8868981069
 30
0.0
 40
3.175
  0
CIRCLE
  5
141
330
1F
100
AcDbEntity
  8
INTERIOR_LOOPS
  6
CONTINUOUS
 62
     3
100
AcDbCircle
 10
145.0651323387
 20
-81.0573792395
 30
0.0
 40
3.175
  0
CIRCLE
  5
142
330
1F
100
AcDbEntity
  8
INTERIOR_LOOPS
  6
CONTINUOUS
 62
     3
100
AcDbCircle
 10
145.0651323387
 20
-90.2278603722
 30
0.0
 40
3.175
  0
CIRCLE
  5
143
330
1F
100
AcDbEntity
  8
INTERIOR_LOOPS
  6
CONTINUOUS
 62
     3
100
AcDbCircle
 10
145.0651323387
 20
-99.3983415048
 30
0.0
 40
3.175
  0
CIRCLE
  5
144
330
1F
100
AcDbEntity
  8
INTERIOR_LOOPS
  6
CONTINUOUS
 62
     3
100
AcDbCircle
 10
145.0651323387
 20
-108.5688226374
 30
0.0
 40
3.175
  0
CIRCLE
  5
145
330
1F
100
AcDbEntity
  8
INTERIOR_LOOPS
  6
CONTINUOUS
 62
     3
100
AcDbCircle
 10
145.0651323387
 20
-117.73930377
 30
0.0
 40
3.175
  0
CIRCLE
  5
146
330
1F
100
AcDbEntity
  8
INTERIOR_LOOPS
  6
CONTINUOUS
 62
     3
100
AcDbCircle
 10
145.0651323387
 20
-126.9097849026
 30
0.0
 40
3.175
  0
CIRCLE
  5
147
330
1F
100
AcDbEntity
  8
INTERIOR_LOOPS
  6
CONTINUOUS
 62
     3
100
AcDbCircle
 10
145.0651323387
 20
-136.0802660352
 30
0.0
 40
3.175
  0
CIRCLE
  5
148
330
1F
100
AcDbEntity
  8
INTERIOR_LOOPS
  6
CONTINUOUS
 62
     3
100
AcDbCircle
 10
145.0651323387
 20
-145.2507471678
 30
0.0
 40
3.175
  0
CIRCLE
  5
149
330
1F
100
AcDbEntity
  8
INTERIOR_LOOPS
  6
CONTINUOUS
 62
     3
100
AcDbCircle
 10
154.7875598374
 20
47.329356617
 30
0.0
 40
3.175
  0
CIRCLE
  5
14A
330
1F
100
AcDbEntity
  8
INTERIOR_LOOPS
  6
CONTINUOUS
 62
     3
100
AcDbCircle
 10
154.7875598374
 20
38.1588754844
 30
0.0
 40
3.175
  0
CIRCLE
  5
14B
330
1F
100
AcDbEntity
  8
INTERIOR_LOOPS
  6
CONTINUOUS
 62
     3
100
AcDbCircle
 10
154.7875598374
 20
28.9883943518
 30
0.0
 40
3.175
  0
CIRCLE
  5
14C
330
1F
100
AcDbEntity
  8
INTERIOR_LOOPS
  6
CONTINUOUS
 62
     3
100
AcDbCircle
 10
154.7875598374
 20
19.8179132192
 30
0.0
 40
3.175
  0
CIRCLE
  5
14D
330
1F
100
AcDbEntity
  8
INTERIOR_LOOPS
  6
CONTINUOUS
 62
     3
100
AcDbCircle
 10
154.7875598374
 20
10.6474320866
 30
0.0
 40
3.175
  0
CIRCLE
  5
14E
330
1F
100
AcDbEntity
  8
INTERIOR_LOOPS
  6
CONTINUOUS
 62
     3
100
AcDbCircle
 10
154.7875598374
 20
1.476950954
 30
0.0
 40
3.175
  0
CIRCLE
  5
14F
330
1F
100
AcDbEntity
  8
INTERIOR_LOOPS
  6
CONTINUOUS
 62
     3
100
AcDbCircle
 10
154.7875598374
 20
-7.6935301786
 30
0.0
 40
3.175
  0
CIRCLE
  5
150
330
1F
100
AcDbEntity
  8
INTERIOR_LOOPS
  6
CONTINUOUS
 62
     3
100
AcDbCircle
 10
154.7875598374
 20
-16.8640113113
 30
0.0
 40
3.175
  0
CIRCLE
  5
151
330
1F
100
AcDbEntity
  8
INTERIOR_LOOPS
  6
CONTINUOUS
 62
     3
100
AcDbCircle
 10
154.7875598374
 20
-26.0344924439
 30
0.0
 40
3.175
  0
CIRCLE
  5
152
330
1F
100
AcDbEntity
  8
INTERIOR_LOOPS
  6
CONTINUOUS
 62
     3
100
AcDbCircle
 10
154.7875598374
 20
-35.2049735765
 30
0.0
 40
3.175
  0
CIRCLE
  5
153
330
1F
100
AcDbEntity
  8
INTERIOR_LOOPS
  6
CONTINUOUS
 62
     3
100
AcDbCircle
 10
154.7875598374
 20
-44.3754547091
 30
0.0
 40
3.175
  0
CIRCLE
  5
154
330
1F
100
AcDbEntity
  8
INTERIOR_LOOPS
  6
CONTINUOUS
 62
     3
100
AcDbCircle
 10
154.7875598374
 20
-53.5459358417
 30
0.0
 40
3.175
  0
CIRCLE
  5
155
330
1F
100
AcDbEntity
  8
INTERIOR_LOOPS
  6
CONTINUOUS
 62
     3
100
AcDbCircle
 10
154.7875598374
 20
-62.7164169743
 30
0.0
 40
3.175
  0
CIRCLE
  5
156
330
1F
100
AcDbEntity
  8
INTERIOR_LOOPS
  6
CONTINUOUS
 62
     3
100
AcDbCircle
 10
154.7875598374
 20
-71.8868981069
 30
0.0
 40
3.175
  0
CIRCLE
  5
157
330
1F
100
AcDbEntity
  8
INTERIOR_LOOPS
  6
CONTINUOUS
 62
     3
100
AcDbCircle
 10
154.7875598374
 20
-81.0573792395
 30
0.0
 40
3.175
  0
CIRCLE
  5
158
330
1F
100
AcDbEntity
  8
INTERIOR_LOOPS
  6
CONTINUOUS
 62
     3
100
AcDbCircle
 10
154.7875598374
 20
-90.2278603722
 30
0.0
 40
3.175
  0
CIRCLE
  5
159
330
1F
100
AcDbEntity
  8
INTERIOR_LOOPS
  6
CONTINUOUS
 62
     3
100
AcDbCircle
 10
154.7875598374
 20
-99.3983415048
 30
0.0
 40
3.175
  0
CIRCLE
  5
15A
330
1F
100
AcDbEntity
  8
INTERIOR_LOOPS
  6
CONTINUOUS
 62
     3
100
AcDbCircle
 10
154.7875598374
 20
-108.5688226374
 30
0.0
 40
3.175
  0
CIRCLE
  5
15B
330
1F
100
AcDbEntity
  8
INTERIOR_LOOPS
  6
CONTINUOUS
 62
     3
100
AcDbCircle
 10
154.7875598374
 20
-117.73930377
 30
0.0
 40
3.175
  0
CIRCLE
  5
15C
330
1F
100
AcDbEntity
  8
INTERIOR_LOOPS
  6
CONTINUOUS
 62
     3
100
AcDbCircle
 10
154.7875598374
 20
-126.9097849026
 30
0.0
 40
3.175
  0
CIRCLE
  5
15D
330
1F
100
AcDbEntity
  8
INTERIOR_LOOPS
  6
CONTINUOUS
 62
     3
100
AcDbCircle
 10
154.7875598374
 20
-136.0802660352
 30
0.0
 40
3.175
  0
CIRCLE
  5
15E
330
1F
100
AcDbEntity
  8
INTERIOR_LOOPS
  6
CONTINUOUS
 62
     3
100
AcDbCircle
 10
154.7875598374
 20
-145.2507471678
 30
0.0
 40
3.175
  0
CIRCLE
  5
15F
330
1F
100
AcDbEntity
  8
INTERIOR_LOOPS
  6
CONTINUOUS
 62
     3
100
AcDbCircle
 10
164.5099873361
 20
47.329356617
 30
0.0
 40
3.175
  0
CIRCLE
  5
160
330
1F
100
AcDbEntity
  8
INTERIOR_LOOPS
  6
CONTINUOUS
 62
     3
100
AcDbCircle
 10
164.5099873361
 20
38.1588754844
 30
0.0
 40
3.175
  0
CIRCLE
  5
161
330
1F
100
AcDbEntity
  8
INTERIOR_LOOPS
  6
CONTINUOUS
 62
     3
100
AcDbCircle
 10
164.5099873361
 20
28.9883943518
 30
0.0
 40
3.175
  0
CIRCLE
  5
162
330
1F
100
AcDbEntity
  8
INTERIOR_LOOPS
  6
CONTINUOUS
 62
     3
100
AcDbCircle
 10
164.5099873361
 20
19.8179132192
 30
0.0
 40
3.175
  0
CIRCLE
  5
163
330
1F
100
AcDbEntity
  8
INTERIOR_LOOPS
  6
CONTINUOUS
 62
     3
100
AcDbCircle
 10
164.5099873361
 20
10.6474320866
 30
0.0
 40
3.175
  0
CIRCLE
  5
164
330
1F
100
AcDbEntity
  8
INTERIOR_LOOPS
  6
CONTINUOUS
 62
     3
100
AcDbCircle
 10
164.5099873361
 20
1.476950954
 30
0.0
 40
3.175
  0
CIRCLE
  5
165
330
1F
100
AcDbEntity
  8
INTERIOR_LOOPS
  6
CONTINUOUS
 62
     3
100
AcDbCircle
 10
164.5099873361
 20
-7.6935301786
 30
0.0
 40
3.175
  0
CIRCLE
  5
166
330
1F
100
AcDbEntity
  8
INTERIOR_LOOPS
  6
CONTINUOUS
 62
     3
100
AcDbCircle
 10
164.5099873361
 20
-16.8640113113
 30
0.0
 40
3.175
  0
CIRCLE
  5
167
330
1F
100
AcDbEntity
  8
INTERIOR_LOOPS
  6
CONTINUOUS
 62
     3
100
AcDbCircle
 10
164.5099873361
 20
-26.0344924439
 30
0.0
 40
3.175
  0
CIRCLE
  5
168
330
1F
100
AcDbEntity
  8
INTERIOR_LOOPS
  6
CONTINUOUS
 62
     3
100
AcDbCircle
 10
164.5099873361
 20
-35.2049735765
 30
0.0
 40
3.175
  0
CIRCLE
  5
169
330
1F
100
AcDbEntity
  8
INTERIOR_LOOPS
  6
CONTINUOUS
 62
     3
100
AcDbCircle
 10
164.5099873361
 20
-44.3754547091
 30
0.0
 40
3.175
  0
CIRCLE
  5
16A
330
1F
100
AcDbEntity
  8
INTERIOR_LOOPS
  6
CONTINUOUS
 62
     3
100
AcDbCircle
 10
164.5099873361
 20
-53.5459358417
 30
0.0
 40
3.175
  0
CIRCLE
  5
16B
330
1F
100
AcDbEntity
  8
INTERIOR_LOOPS
  6
CONTINUOUS
 62
     3
100
AcDbCircle
 10
164.5099873361
 20
-62.7164169743
 30
0.0
 40
3.175
  0
CIRCLE
  5
16C
330
1F
100
AcDbEntity
  8
INTERIOR_LOOPS
  6
CONTINUOUS
 62
     3
100
AcDbCircle
 10
164.5099873361
 20
-71.8868981069
 30
0.0
 40
3.175
  0
CIRCLE
  5
16D
330
1F
100
AcDbEntity
  8
INTERIOR_LOOPS
  6
CONTINUOUS
 62
     3
100
AcDbCircle
 10
164.5099873361
 20
-81.0573792395
 30
0.0
 40
3.175
  0
CIRCLE
  5
16E
330
1F
100
AcDbEntity
  8
INTERIOR_LOOPS
  6
CONTINUOUS
 62
     3
100
AcDbCircle
 10
164.5099873361
 20
-90.2278603722
 30
0.0
 40
3.175
  0
CIRCLE
  5
16F
330
1F
100
AcDbEntity
  8
INTERIOR_LOOPS
  6
CONTINUOUS
 62
     3
100
AcDbCircle
 10
164.5099873361
 20
-99.3983415048
 30
0.0
 40
3.175
  0
CIRCLE
  5
170
330
1F
100
AcDbEntity
  8
INTERIOR_LOOPS
  6
CONTINUOUS
 62
     3
100
AcDbCircle
 10
164.5099873361
 20
-108.5688226374
 30
0.0
 40
3.175
  0
CIRCLE
  5
171
330
1F
100
AcDbEntity
  8
INTERIOR_LOOPS
  6
CONTINUOUS
 62
     3
100
AcDbCircle
 10
164.5099873361
 20
-117.73930377
 30
0.0
 40
3.175
  0
CIRCLE
  5
172
330
1F
100
AcDbEntity
  8
INTERIOR_LOOPS
  6
CONTINUOUS
 62
     3
100
AcDbCircle
 10
164.5099873361
 20
-126.9097849026
 30
0.0
 40
3.175
  0
CIRCLE
  5
173
330
1F
100
AcDbEntity
  8
INTERIOR_LOOPS
  6
CONTINUOUS
 62
     3
100
AcDbCircle
 10
164.5099873361
 20
-136.0802660352
 30
0.0
 40
3.175
  0
CIRCLE
  5
174
330
1F
100
AcDbEntity
  8
INTERIOR_LOOPS
  6
CONTINUOUS
 62
     3
100
AcDbCircle
 10
174.2324148348
 20
47.329356617
 30
0.0
 40
3.175
  0
CIRCLE
  5
175
330
1F
100
AcDbEntity
  8
INTERIOR_LOOPS
  6
CONTINUOUS
 62
     3
100
AcDbCircle
 10
174.2324148348
 20
38.1588754844
 30
0.0
 40
3.175
  0
CIRCLE
  5
176
330
1F
100
AcDbEntity
  8
INTERIOR_LOOPS
  6
CONTINUOUS
 62
     3
100
AcDbCircle
 10
174.2324148348
 20
28.9883943518
 30
0.0
 40
3.175
  0
CIRCLE
  5
177
330
1F
100
AcDbEntity
  8
INTERIOR_LOOPS
  6
CONTINUOUS
 62
     3
100
AcDbCircle
 10
174.2324148348
 20
19.8179132192
 30
0.0
 40
3.175
  0
CIRCLE
  5
178
330
1F
100
AcDbEntity
  8
INTERIOR_LOOPS
  6
CONTINUOUS
 62
     3
100
AcDbCircle
 10
174.2324148348
 20
10.6474320866
 30
0.0
 40
3.175
  0
CIRCLE
  5
179
330
1F
100
AcDbEntity
  8
INTERIOR_LOOPS
  6
CONTINUOUS
 62
     3
100
AcDbCircle
 10
174.2324148348
 20
1.476950954
 30
0.0
 40
3.175
  0
CIRCLE
  5
17A
330
1F
100
AcDbEntity
  8
INTERIOR_LOOPS
  6
CONTINUOUS
 62
     3
100
AcDbCircle
 10
174.2324148348
 20
-7.6935301786
 30
0.0
 40
3.175
  0
CIRCLE
  5
17B
330
1F
100
AcDbEntity
  8
INTERIOR_LOOPS
  6
CONTINUOUS
 62
     3
100
AcDbCircle
 10
174.2324148348
 20
-16.8640113113
 30
0.0
 40
3.175
  0
CIRCLE
  5
17C
330
1F
100
AcDbEntity
  8
INTERIOR_LOOPS
  6
CONTINUOUS
 62
     3
100
AcDbCircle
 10
174.2324148348
 20
-26.0344924439
 30
0.0
 40
3.175
  0
CIRCLE
  5
17D
330
1F
100
AcDbEntity
  8
INTERIOR_LOOPS
  6
CONTINUOUS
 62
     3
100
AcDbCircle
 10
174.2324148348
 20
-35.2049735765
 30
0.0
 40
3.175
  0
CIRCLE
  5
17E
330
1F
100
AcDbEntity
  8
INTERIOR_LOOPS
  6
CONTINUOUS
 62
     3
100
AcDbCircle
 10
174.2324148348
 20
-44.3754547091
 30
0.0
 40
3.175
  0
CIRCLE
  5
17F
330
1F
100
AcDbEntity
  8
INTERIOR_LOOPS
  6
CONTINUOUS
 62
     3
100
AcDbCircle
 10
174.2324148348
 20
-53.5459358417
 30
0.0
 40
3.175
  0
CIRCLE
  5
180
330
1F
100
AcDbEntity
  8
INTERIOR_LOOPS
  6
CONTINUOUS
 62
     3
100
AcDbCircle
 10
174.2324148348
 20
-62.7164169743
 30
0.0
 40
3.175
  0
CIRCLE
  5
181
330
1F
100
AcDbEntity
  8
INTERIOR_LOOPS
  6
CONTINUOUS
 62
     3
100
AcDbCircle
 10
174.2324148348
 20
-71.8868981069
 30
0.0
 40
3.175
  0
CIRCLE
  5
182
330
1F
100
AcDbEntity
  8
INTERIOR_LOOPS
  6
CONTINUOUS
 62
     3
100
AcDbCircle
 10
174.2324148348
 20
-81.0573792395
 30
0.0
 40
3.175
  0
CIRCLE
  5
183
330
1F
100
AcDbEntity
  8
INTERIOR_LOOPS
  6
CONTINUOUS
 62
     3
100
AcDbCircle
 10
174.2324148348
 20
-90.2278603722
 30
0.0
 40
3.175
  0
CIRCLE
  5
184
330
1F
100
AcDbEntity
  8
INTERIOR_LOOPS
  6
CONTINUOUS
 62
     3
100
AcDbCircle
 10
174.2324148348
 20
-99.3983415048
 30
0.0
 40
3.175
  0
CIRCLE
  5
185
330
1F
100
AcDbEntity
  8
INTERIOR_LOOPS
  6
CONTINUOUS
 62
     3
100
AcDbCircle
 10
174.2324148348
 20
-108.5688226374
 30
0.0
 40
3.175
  0
CIRCLE
  5
186
330
1F
100
AcDbEntity
  8
INTERIOR_LOOPS
  6
CONTINUOUS
 62
     3
100
AcDbCircle
 10
174.2324148348
 20
-117.73930377
 30
0.0
 40
3.175
  0
CIRCLE
  5
187
330
1F
100
AcDbEntity
  8
INTERIOR_LOOPS
  6
CONTINUOUS
 62
     3
100
AcDbCircle
 10
174.2324148348
 20
-126.9097849026
 30
0.0
 40
3.175
  0
CIRCLE
  5
188
330
1F
100
AcDbEntity
  8
INTERIOR_LOOPS
  6
CONTINUOUS
 62
     3
100
AcDbCircle
 10
174.2324148348
 20
-136.0802660352
 30
0.0
 40
3.175
  0
CIRCLE
  5
189
330
1F
100
AcDbEntity
  8
INTERIOR_LOOPS
  6
CONTINUOUS
 62
     3
100
AcDbCircle
 10
183.9548423335
 20
47.329356617
 30
0.0
 40
3.175
  0
CIRCLE
  5
18A
330
1F
100
AcDbEntity
  8
INTERIOR_LOOPS
  6
CONTINUOUS
 62
     3
100
AcDbCircle
 10
183.9548423335
 20
38.1588754844
 30
0.0
 40
3.175
  0
CIRCLE
  5
18B
330
1F
100
AcDbEntity
  8
INTERIOR_LOOPS
  6
CONTINUOUS
 62
     3
100
AcDbCircle
 10
183.9548423335
 20
28.9883943518
 30
0.0
 40
3.175
  0
CIRCLE
  5
18C
330
1F
100
AcDbEntity
  8
INTERIOR_LOOPS
  6
CONTINUOUS
 62
     3
100
AcDbCircle
 10
183.9548423335
 20
19.8179132192
 30
0.0
 40
3.175
  0
CIRCLE
  5
18D
330
1F
100
AcDbEntity
  8
INTERIOR_LOOPS
  6
CONTINUOUS
 62
     3
100
AcDbCircle
 10
183.9548423335
 20
10.6474320866
 30
0.0
 40
3.175
  0
CIRCLE
  5
18E
330
1F
100
AcDbEntity
  8
INTERIOR_LOOPS
  6
CONTINUOUS
 62
     3
100
AcDbCircle
 10
183.9548423335
 20
1.476950954
 30
0.0
 40
3.175
  0
CIRCLE
  5
18F
330
1F
100
AcDbEntity
  8
INTERIOR_LOOPS
  6
CONTINUOUS
 62
     3
100
AcDbCircle
 10
183.9548423335
 20
-7.6935301786
 30
0.0
 40
3.175
  0
CIRCLE
  5
190
330
1F
100
AcDbEntity
  8
INTERIOR_LOOPS
  6
CONTINUOUS
 62
     3
100
AcDbCircle
 10
183.9548423335
 20
-16.8640113113
 30
0.0
 40
3.175
  0
CIRCLE
  5
191
330
1F
100
AcDbEntity
  8
INTERIOR_LOOPS
  6
CONTINUOUS
 62
     3
100
AcDbCircle
 10
183.9548423335
 20
-26.0344924439
 30
0.0
 40
3.175
  0
CIRCLE
  5
192
330
1F
100
AcDbEntity
  8
INTERIOR_LOOPS
  6
CONTINUOUS
 62
     3
100
AcDbCircle
 10
183.9548423335
 20
-35.2049735765
 30
0.0
 40
3.175
  0
CIRCLE
  5
193
330
1F
100
AcDbEntity
  8
INTERIOR_LOOPS
  6
CONTINUOUS
 62
     3
100
AcDbCircle
 10
183.9548423335
 20
-44.3754547091
 30
0.0
 40
3.175
  0
CIRCLE
  5
194
330
1F
100
AcDbEntity
  8
INTERIOR_LOOPS
  6
CONTINUOUS
 62
     3
100
AcDbCircle
 10
183.9548423335
 20
-53.5459358417
 30
0.0
 40
3.175
  0
CIRCLE
  5
195
330
1F
100
AcDbEntity
  8
INTERIOR_LOOPS
  6
CONTINUOUS
 62
     3
100
AcDbCircle
 10
183.9548423335
 20
-62.7164169743
 30
0.0
 40
3.175
  0
CIRCLE
  5
196
330
1F
100
AcDbEntity
  8
INTERIOR_LOOPS
  6
CONTINUOUS
 62
     3
100
AcDbCircle
 10
183.9548423335
 20
-71.8868981069
 30
0.0
 40
3.175
  0
CIRCLE
  5
197
330
1F
100
AcDbEntity
  8
INTERIOR_LOOPS
  6
CONTINUOUS
 62
     3
100
AcDbCircle
 10
183.9548423335
 20
-81.0573792395
 30
0.0
 40
3.175
  0
CIRCLE
  5
198
330
1F
100
AcDbEntity
  8
INTERIOR_LOOPS
  6
CONTINUOUS
 62
     3
100
AcDbCircle
 10
183.9548423335
 20
-90.2278603722
 30
0.0
 40
3.175
  0
CIRCLE
  5
199
330
1F
100
AcDbEntity
  8
INTERIOR_LOOPS
  6
CONTINUOUS
 62
     3
100
AcDbCircle
 10
183.9548423335
 20
-99.3983415048
 30
0.0
 40
3.175
  0
CIRCLE
  5
19A
330
1F
100
AcDbEntity
  8
INTERIOR_LOOPS
  6
CONTINUOUS
 62
     3
100
AcDbCircle
 10
183.9548423335
 20
-108.5688226374
 30
0.0
 40
3.175
  0
CIRCLE
  5
19B
330
1F
100
AcDbEntity
  8
INTERIOR_LOOPS
  6
CONTINUOUS
 62
     3
100
AcDbCircle
 10
183.9548423335
 20
-117.73930377
 30
0.0
 40
3.175
  0
CIRCLE
  5
19C
330
1F
100
AcDbEntity
  8
INTERIOR_LOOPS
  6
CONTINUOUS
 62
     3
100
AcDbCircle
 10
183.9548423335
 20
-126.9097849026
 30
0.0
 40
3.175
  0
CIRCLE
  5
19D
330
1F
100
AcDbEntity
  8
INTERIOR_LOOPS
  6
CONTINUOUS
 62
     3
100
AcDbCircle
 10
183.9548423335
 20
-136.0802660352
 30
0.0
 40
3.175
  0
CIRCLE
  5
19E
330
1F
100
AcDbEntity
  8
INTERIOR_LOOPS
  6
CONTINUOUS
 62
     3
100
AcDbCircle
 10
193.6772698322
 20
47.329356617
 30
0.0
 40
3.175
  0
CIRCLE
  5
19F
330
1F
100
AcDbEntity
  8
INTERIOR_LOOPS
  6
CONTINUOUS
 62
     3
100
AcDbCircle
 10
193.6772698322
 20
38.1588754844
 30
0.0
 40
3.175
  0
CIRCLE
  5
1A0
330
1F
100
AcDbEntity
  8
INTERIOR_LOOPS
  6
CONTINUOUS
 62
     3
100
AcDbCircle
 10
193.6772698322
 20
28.9883943518
 30
0.0
 40
3.175
  0
CIRCLE
  5
1A1
330
1F
100
AcDbEntity
  8
INTERIOR_LOOPS
  6
CONTINUOUS
 62
     3
100
AcDbCircle
 10
193.6772698322
 20
19.8179132192
 30
0.0
 40
3.175
  0
CIRCLE
  5
1A2
330
1F
100
AcDbEntity
  8
INTERIOR_LOOPS
  6
CONTINUOUS
 62
     3
100
AcDbCircle
 10
193.6772698322
 20
10.6474320866
 30
0.0
 40
3.175
  0
CIRCLE
  5
1A3
330
1F
100
AcDbEntity
  8
INTERIOR_LOOPS
  6
CONTINUOUS
 62
     3
100
AcDbCircle
 10
193.6772698322
 20
1.476950954
 30
0.0
 40
3.175
  0
CIRCLE
  5
1A4
330
1F
100
AcDbEntity
  8
INTERIOR_LOOPS
  6
CONTINUOUS
 62
     3
100
AcDbCircle
 10
193.6772698322
 20
-7.6935301786
 30
0.0
 40
3.175
  0
CIRCLE
  5
1A5
330
1F
100
AcDbEntity
  8
INTERIOR_LOOPS
  6
CONTINUOUS
 62
     3
100
AcDbCircle
 10
193.6772698322
 20
-16.8640113113
 30
0.0
 40
3.175
  0
CIRCLE
  5
1A6
330
1F
100
AcDbEntity
  8
INTERIOR_LOOPS
  6
CONTINUOUS
 62
     3
100
AcDbCircle
 10
193.6772698322
 20
-26.0344924439
 30
0.0
 40
3.175
  0
CIRCLE
  5
1A7
330
1F
100
AcDbEntity
  8
INTERIOR_LOOPS
  6
CONTINUOUS
 62
     3
100
AcDbCircle
 10
193.6772698322
 20
-35.2049735765
 30
0.0
 40
3.175
  0
CIRCLE
  5
1A8
330
1F
100
AcDbEntity
  8
INTERIOR_LOOPS
  6
CONTINUOUS
 62
     3
100
AcDbCircle
 10
193.6772698322
 20
-44.3754547091
 30
0.0
 40
3.175
  0
CIRCLE
  5
1A9
330
1F
100
AcDbEntity
  8
INTERIOR_LOOPS
  6
CONTINUOUS
 62
     3
100
AcDbCircle
 10
193.6772698322
 20
-53.5459358417
 30
0.0
 40
3.175
  0
CIRCLE
  5
1AA
330
1F
100
AcDbEntity
  8
INTERIOR_LOOPS
  6
CONTINUOUS
 62
     3
100
AcDbCircle
 10
193.6772698322
 20
-62.7164169743
 30
0.0
 40
3.175
  0
CIRCLE
  5
1AB
330
1F
100
AcDbEntity
  8
INTERIOR_LOOPS
  6
CONTINUOUS
 62
     3
100
AcDbCircle
 10
193.6772698322
 20
-71.8868981069
 30
0.0
 40
3.175
  0
CIRCLE
  5
1AC
330
1F
100
AcDbEntity
  8
INTERIOR_LOOPS
  6
CONTINUOUS
 62
     3
100
AcDbCircle
 10
193.6772698322
 20
-81.0573792395
 30
0.0
 40
3.175
  0
CIRCLE
  5
1AD
330
1F
100
AcDbEntity
  8
INTERIOR_LOOPS
  6
CONTINUOUS
 62
     3
100
AcDbCircle
 10
193.6772698322
 20
-90.2278603722
 30
0.0
 40
3.175
  0
CIRCLE
  5
1AE
330
1F
100
AcDbEntity
  8
INTERIOR_LOOPS
  6
CONTINUOUS
 62
     3
100
AcDbCircle
 10
193.6772698322
 20
-99.3983415048
 30
0.0
 40
3.175
  0
CIRCLE
  5
1AF
330
1F
100
AcDbEntity
  8
INTERIOR_LOOPS
  6
CONTINUOUS
 62
     3
100
AcDbCircle
 10
193.6772698322
 20
-108.5688226374
 30
0.0
 40
3.175
  0
CIRCLE
  5
1B0
330
1F
100
AcDbEntity
  8
INTERIOR_LOOPS
  6
CONTINUOUS
 62
     3
100
AcDbCircle
 10
193.6772698322
 20
-117.73930377
 30
0.0
 40
3.175
  0
CIRCLE
  5
1B1
330
1F
100
AcDbEntity
  8
INTERIOR_LOOPS
  6
CONTINUOUS
 62
     3
100
AcDbCircle
 10
193.6772698322
 20
-126.9097849026
 30
0.0
 40
3.175
  0
CIRCLE
  5
1B2
330
1F
100
AcDbEntity
  8
INTERIOR_LOOPS
  6
CONTINUOUS
 62
     3
100
AcDbCircle
 10
193.6772698322
 20
-136.0802660352
 30
0.0
 40
3.175
  0
CIRCLE
  5
1B3
330
1F
100
AcDbEntity
  8
INTERIOR_LOOPS
  6
CONTINUOUS
 62
     3
100
AcDbCircle
 10
203.3996973309
 20
47.329356617
 30
0.0
 40
3.175
  0
CIRCLE
  5
1B4
330
1F
100
AcDbEntity
  8
INTERIOR_LOOPS
  6
CONTINUOUS
 62
     3
100
AcDbCircle
 10
203.3996973309
 20
38.1588754844
 30
0.0
 40
3.175
  0
CIRCLE
  5
1B5
330
1F
100
AcDbEntity
  8
INTERIOR_LOOPS
  6
CONTINUOUS
 62
     3
100
AcDbCircle
 10
203.3996973309
 20
28.9883943518
 30
0.0
 40
3.175
  0
CIRCLE
  5
1B6
330
1F
100
AcDbEntity
  8
INTERIOR_LOOPS
  6
CONTINUOUS
 62
     3
100
AcDbCircle
 10
203.3996973309
 20
19.8179132192
 30
0.0
 40
3.175
  0
CIRCLE
  5
1B7
330
1F
100
AcDbEntity
  8
INTERIOR_LOOPS
  6
CONTINUOUS
 62
     3
100
AcDbCircle
 10
203.3996973309
 20
10.6474320866
 30
0.0
 40
3.175
  0
CIRCLE
  5
1B8
330
1F
100
AcDbEntity
  8
INTERIOR_LOOPS
  6
CONTINUOUS
 62
     3
100
AcDbCircle
 10
203.3996973309
 20
1.476950954
 30
0.0
 40
3.175
  0
CIRCLE
  5
1B9
330
1F
100
AcDbEntity
  8
INTERIOR_LOOPS
  6
CONTINUOUS
 62
     3
100
AcDbCircle
 10
203.3996973309
 20
-7.6935301786
 30
0.0
 40
3.175
  0
CIRCLE
  5
1BA
330
1F
100
AcDbEntity
  8
INTERIOR_LOOPS
  6
CONTINUOUS
 62
     3
100
AcDbCircle
 10
203.3996973309
 20
-16.8640113113
 30
0.0
 40
3.175
  0
CIRCLE
  5
1BB
330
1F
100
AcDbEntity
  8
INTERIOR_LOOPS
  6
CONTINUOUS
 62
     3
100
AcDbCircle
 10
203.3996973309
 20
-26.0344924439
 30
0.0
 40
3.175
  0
CIRCLE
  5
1BC
330
1F
100
AcDbEntity
  8
INTERIOR_LOOPS
  6
CONTINUOUS
 62
     3
100
AcDbCircle
 10
203.3996973309
 20
-35.2049735765
 30
0.0
 40
3.175
  0
CIRCLE
  5
1BD
330
1F
100
AcDbEntity
  8
INTERIOR_LOOPS
  6
CONTINUOUS
 62
     3
100
AcDbCircle
 10
203.3996973309
 20
-44.3754547091
 30
0.0
 40
3.175
  0
CIRCLE
  5
1BE
330
1F
100
AcDbEntity
  8
INTERIOR_LOOPS
  6
CONTINUOUS
 62
     3
100
AcDbCircle
 10
203.3996973309
 20
-53.5459358417
 30
0.0
 40
3.175
  0
CIRCLE
  5
1BF
330
1F
100
AcDbEntity
  8
INTERIOR_LOOPS
  6
CONTINUOUS
 62
     3
100
AcDbCircle
 10
203.3996973309
 20
-62.7164169743
 30
0.0
 40
3.175
  0
CIRCLE
  5
1C0
330
1F
100
AcDbEntity
  8
INTERIOR_LOOPS
  6
CONTINUOUS
 62
     3
100
AcDbCircle
 10
203.3996973309
 20
-71.8868981069
 30
0.0
 40
3.175
  0
CIRCLE
  5
1C1
330
1F
100
AcDbEntity
  8
INTERIOR_LOOPS
  6
CONTINUOUS
 62
     3
100
AcDbCircle
 10
203.3996973309
 20
-81.0573792395
 30
0.0
 40
3.175
  0
CIRCLE
  5
1C2
330
1F
100
AcDbEntity
  8
INTERIOR_LOOPS
  6
CONTINUOUS
 62
     3
100
AcDbCircle
 10
203.3996973309
 20
-90.2278603722
 30
0.0
 40
3.175
  0
CIRCLE
  5
1C3
330
1F
100
AcDbEntity
  8
INTERIOR_LOOPS
  6
CONTINUOUS
 62
     3
100
AcDbCircle
 10
203.3996973309
 20
-99.3983415048
 30
0.0
 40
3.175
  0
CIRCLE
  5
1C4
330
1F
100
AcDbEntity
  8
INTERIOR_LOOPS
  6
CONTINUOUS
 62
     3
100
AcDbCircle
 10
203.3996973309
 20
-108.5688226374
 30
0.0
 40
3.175
  0
CIRCLE
  5
1C5
330
1F
100
AcDbEntity
  8
INTERIOR_LOOPS
  6
CONTINUOUS
 62
     3
100
AcDbCircle
 10
203.3996973309
 20
-117.73930377
 30
0.0
 40
3.175
  0
CIRCLE
  5
1C6
330
1F
100
AcDbEntity
  8
INTERIOR_LOOPS
  6
CONTINUOUS
 62
     3
100
AcDbCircle
 10
203.3996973309
 20
-126.9097849026
 30
0.0
 40
3.175
  0
CIRCLE
  5
1C7
330
1F
100
AcDbEntity
  8
INTERIOR_LOOPS
  6
CONTINUOUS
 62
     3
100
AcDbCircle
 10
213.1221248296
 20
38.1588754844
 30
0.0
 40
3.175
  0
CIRCLE
  5
1C8
330
1F
100
AcDbEntity
  8
INTERIOR_LOOPS
  6
CONTINUOUS
 62
     3
100
AcDbCircle
 10
213.1221248296
 20
28.9883943518
 30
0.0
 40
3.175
  0
CIRCLE
  5
1C9
330
1F
100
AcDbEntity
  8
INTERIOR_LOOPS
  6
CONTINUOUS
 62
     3
100
AcDbCircle
 10
213.1221248296
 20
19.8179132192
 30
0.0
 40
3.175
  0
CIRCLE
  5
1CA
330
1F
100
AcDbEntity
  8
INTERIOR_LOOPS
  6
CONTINUOUS
 62
     3
100
AcDbCircle
 10
213.1221248296
 20
10.6474320866
 30
0.0
 40
3.175
  0
CIRCLE
  5
1CB
330
1F
100
AcDbEntity
  8
INTERIOR_LOOPS
  6
CONTINUOUS
 62
     3
100
AcDbCircle
 10
213.1221248296
 20
1.476950954
 30
0.0
 40
3.175
  0
CIRCLE
  5
1CC
330
1F
100
AcDbEntity
  8
INTERIOR_LOOPS
  6
CONTINUOUS
 62
     3
100
AcDbCircle
 10
213.1221248296
 20
-7.6935301786
 30
0.0
 40
3.175
  0
CIRCLE
  5
1CD
330
1F
100
AcDbEntity
  8
INTERIOR_LOOPS
  6
CONTINUOUS
 62
     3
100
AcDbCircle
 10
213.1221248296
 20
-16.8640113113
 30
0.0
 40
3.175
  0
CIRCLE
  5
1CE
330
1F
100
AcDbEntity
  8
INTERIOR_LOOPS
  6
CONTINUOUS
 62
     3
100
AcDbCircle
 10
213.1221248296
 20
-26.0344924439
 30
0.0
 40
3.175
  0
CIRCLE
  5
1CF
330
1F
100
AcDbEntity
  8
INTERIOR_LOOPS
  6
CONTINUOUS
 62
     3
100
AcDbCircle
 10
213.1221248296
 20
-35.2049735765
 30
0.0
 40
3.175
  0
CIRCLE
  5
1D0
330
1F
100
AcDbEntity
  8
INTERIOR_LOOPS
  6
CONTINUOUS
 62
     3
100
AcDbCircle
 10
213.1221248296
 20
-44.3754547091
 30
0.0
 40
3.175
  0
CIRCLE
  5
1D1
330
1F
100
AcDbEntity
  8
INTERIOR_LOOPS
  6
CONTINUOUS
 62
     3
100
AcDbCircle
 10
213.1221248296
 20
-53.5459358417
 30
0.0
 40
3.175
  0
CIRCLE
  5
1D2
330
1F
100
AcDbEntity
  8
INTERIOR_LOOPS
  6
CONTINUOUS
 62
     3
100
AcDbCircle
 10
213.1221248296
 20
-62.7164169743
 30
0.0
 40
3.175
  0
CIRCLE
  5
1D3
330
1F
100
AcDbEntity
  8
INTERIOR_LOOPS
  6
CONTINUOUS
 62
     3
100
AcDbCircle
 10
213.1221248296
 20
-71.8868981069
 30
0.0
 40
3.175
  0
CIRCLE
  5
1D4
330
1F
100
AcDbEntity
  8
INTERIOR_LOOPS
  6
CONTINUOUS
 62
     3
100
AcDbCircle
 10
213.1221248296
 20
-81.0573792395
 30
0.0
 40
3.175
  0
CIRCLE
  5
1D5
330
1F
100
AcDbEntity
  8
INTERIOR_LOOPS
  6
CONTINUOUS
 62
     3
100
AcDbCircle
 10
213.1221248296
 20
-90.2278603722
 30
0.0
 40
3.175
  0
CIRCLE
  5
1D6
330
1F
100
AcDbEntity
  8
INTERIOR_LOOPS
  6
CONTINUOUS
 62
     3
100
AcDbCircle
 10
213.1221248296
 20
-99.3983415048
 30
0.0
 40
3.175
  0
CIRCLE
  5
1D7
330
1F
100
AcDbEntity
  8
INTERIOR_LOOPS
  6
CONTINUOUS
 62
     3
100
AcDbCircle
 10
213.1221248296
 20
-108.5688226374
 30
0.0
 40
3.175
  0
CIRCLE
  5
1D8
330
1F
100
AcDbEntity
  8
INTERIOR_LOOPS
  6
CONTINUOUS
 62
     3
100
AcDbCircle
 10
213.1221248296
 20
-117.73930377
 30
0.0
 40
3.175
  0
CIRCLE
  5
1D9
330
1F
100
AcDbEntity
  8
INTERIOR_LOOPS
  6
CONTINUOUS
 62
     3
100
AcDbCircle
 10
222.8445523283
 20
19.8179132192
 30
0.0
 40
3.175
  0
CIRCLE
  5
1DA
330
1F
100
AcDbEntity
  8
INTERIOR_LOOPS
  6
CONTINUOUS
 62
     3
100
AcDbCircle
 10
222.8445523283
 20
10.6474320866
 30
0.0
 40
3.175
  0
CIRCLE
  5
1DB
330
1F
100
AcDbEntity
  8
INTERIOR_LOOPS
  6
CONTINUOUS
 62
     3
100
AcDbCircle
 10
222.8445523283
 20
1.476950954
 30
0.0
 40
3.175
  0
CIRCLE
  5
1DC
330
1F
100
AcDbEntity
  8
INTERIOR_LOOPS
  6
CONTINUOUS
 62
     3
100
AcDbCircle
 10
222.8445523283
 20
-7.6935301786
 30
0.0
 40
3.175
  0
CIRCLE
  5
1DD
330
1F
100
AcDbEntity
  8
INTERIOR_LOOPS
  6
CONTINUOUS
 62
     3
100
AcDbCircle
 10
222.8445523283
 20
-16.8640113113
 30
0.0
 40
3.175
  0
CIRCLE
  5
1DE
330
1F
100
AcDbEntity
  8
INTERIOR_LOOPS
  6
CONTINUOUS
 62
     3
100
AcDbCircle
 10
222.8445523283
 20
-26.0344924439
 30
0.0
 40
3.175
  0
CIRCLE
  5
1DF
330
1F
100
AcDbEntity
  8
INTERIOR_LOOPS
  6
CONTINUOUS
 62
     3
100
AcDbCircle
 10
222.8445523283
 20
-35.2049735765
 30
0.0
 40
3.175
  0
CIRCLE
  5
1E0
330
1F
100
AcDbEntity
  8
INTERIOR_LOOPS
  6
CONTINUOUS
 62
     3
100
AcDbCircle
 10
222.8445523283
 20
-44.3754547091
 30
0.0
 40
3.175
  0
CIRCLE
  5
1E1
330
1F
100
AcDbEntity
  8
INTERIOR_LOOPS
  6
CONTINUOUS
 62
     3
100
AcDbCircle
 10
222.8445523283
 20
-53.5459358417
 30
0.0
 40
3.175
  0
CIRCLE
  5
1E2
330
1F
100
AcDbEntity
  8
INTERIOR_LOOPS
  6
CONTINUOUS
 62
     3
100
AcDbCircle
 10
222.8445523283
 20
-62.7164169743
 30
0.0
 40
3.175
  0
CIRCLE
  5
1E3
330
1F
100
AcDbEntity
  8
INTERIOR_LOOPS
  6
CONTINUOUS
 62
     3
100
AcDbCircle
 10
222.8445523283
 20
-71.8868981069
 30
0.0
 40
3.175
  0
CIRCLE
  5
1E4
330
1F
100
AcDbEntity
  8
INTERIOR_LOOPS
  6
CONTINUOUS
 62
     3
100
AcDbCircle
 10
222.8445523283
 20
-81.0573792395
 30
0.0
 40
3.175
  0
CIRCLE
  5
1E5
330
1F
100
AcDbEntity
  8
INTERIOR_LOOPS
  6
CONTINUOUS
 62
     3
100
AcDbCircle
 10
222.8445523283
 20
-90.2278603722
 30
0.0
 40
3.175
  0
CIRCLE
  5
1E6
330
1F
100
AcDbEntity
  8
INTERIOR_LOOPS
  6
CONTINUOUS
 62
     3
100
AcDbCircle
 10
222.8445523283
 20
-99.3983415048
 30
0.0
 40
3.175
  0
CIRCLE
  5
1E7
330
1F
100
AcDbEntity
  8
INTERIOR_LOOPS
  6
CONTINUOUS
 62
     3
100
AcDbCircle
 10
232.5669798271
 20
-16.8640113113
 30
0.0
 40
3.175
  0
CIRCLE
  5
1E8
330
1F
100
AcDbEntity
  8
INTERIOR_LOOPS
  6
CONTINUOUS
 62
     3
100
AcDbCircle
 10
232.5669798271
 20
-26.0344924439
 30
0.0
 40
3.175
  0
CIRCLE
  5
1E9
330
1F
100
AcDbEntity
  8
INTERIOR_LOOPS
  6
CONTINUOUS
 62
     3
100
AcDbCircle
 10
232.5669798271
 20
-35.2049735765
 30
0.0
 40
3.175
  0
CIRCLE
  5
1EA
330
1F
100
AcDbEntity
  8
INTERIOR_LOOPS
  6
CONTINUOUS
 62
     3
100
AcDbCircle
 10
232.5669798271
 20
-44.3754547091
 30
0.0
 40
3.175
  0
CIRCLE
  5
1EB
330
1F
100
AcDbEntity
  8
INTERIOR_LOOPS
  6
CONTINUOUS
 62
     3
100
AcDbCircle
 10
232.5669798271
 20
-53.5459358417
 30
0.0
 40
3.175
  0
CIRCLE
  5
1EC
330
1F
100
AcDbEntity
  8
INTERIOR_LOOPS
  6
CONTINUOUS
 62
     3
100
AcDbCircle
 10
232.5669798271
 20
-62.7164169743
 30
0.0
 40
3.175
  0
LINE
  5
1EE
330
1F
100
AcDbEntity
  8
OUTER_LOOP
  6
CONTINUOUS
 62
     3
100
AcDbLine
 10
85.7116550506
 20
0.0
 30
0.0
 11
0.0
 21
0.0
 31
0.0
  0
CIRCLE
  5
1EF
330
1F
100
AcDbEntity
  8
INTERIOR_LOOPS
  6
CONTINUOUS
 62
     3
100
AcDbCircle
 10
79.8200613053
 20
-89.1820363854
 30
0.0
 40
5.2451
  0
ARC
  5
1F0
330
1F
100
AcDbEntity
  8
OUTER_LOOP
  6
CONTINUOUS
 62
     3
100
AcDbCircle
 10
85.7116550506
 20
-40.5
 30
0.0
 40
40.49999999999999
100
AcDbArc
 50
270.0
 51
90.0
  0
CIRCLE
  5
1F1
330
1F
100
AcDbEntity
  8
INTERIOR_LOOPS
  6
CONTINUOUS
 62
     3
100
AcDbCircle
 10
134.4214067282
 20
-45.4854973585
 30
0.0
 40
5.2451
  0
LINE
  5
1F2
330
1F
100
AcDbEntity
  8
OUTER_LOOP
  6
CONTINUOUS
 62
     3
100
AcDbLine
 10
186.5621498645
 20
-152.6094412161
 30
0.0
 11
189.3199765022
 21
-155.675151949
 31
0.0
  0
ARC
  5
1F3
330
1F
100
AcDbEntity
  8
OUTER_LOOP
  6
CONTINUOUS
 62
     3
100
AcDbCircle
 10
183.9548423335
 20
-154.4212283005
 30
0.0
 40
3.175
100
AcDbArc
 50
34.7949786945
 51
49.152325195
  0
CIRCLE
  5
1F4
330
1F
100
AcDbEntity
  8
INTERIOR_LOOPS
  6
CONTINUOUS
 62
     3
100
AcDbCircle
 10
-0.761603446
 20
56.2793570377
 30
0.0
 40
3.175
  0
CIRCLE
  5
1F5
330
1F
100
AcDbEntity
  8
INTERIOR_LOOPS
  6
CONTINUOUS
 62
     3
100
AcDbCircle
 10
8.964049618
 20
56.2793570377
 30
0.0
 40
3.175
  0
CIRCLE
  5
1F6
330
1F
100
AcDbEntity
  8
INTERIOR_LOOPS
  6
CONTINUOUS
 62
     3
100
AcDbCircle
 10
8.964049618
 20
65.7658167319
 30
0.0
 40
3.175
  0
CIRCLE
  5
1F7
330
1F
100
AcDbEntity
  8
INTERIOR_LOOPS
  6
CONTINUOUS
 62
     3
100
AcDbCircle
 10
8.964049618
 20
75.2522764262
 30
0.0
 40
3.175
  0
CIRCLE
  5
1F8
330
1F
100
AcDbEntity
  8
INTERIOR_LOOPS
  6
CONTINUOUS
 62
     3
100
AcDbCircle
 10
18.689702682
 20
56.2793570377
 30
0.0
 40
3.175
  0
CIRCLE
  5
1F9
330
1F
100
AcDbEntity
  8
INTERIOR_LOOPS
  6
CONTINUOUS
 62
     3
100
AcDbCircle
 10
18.689702682
 20
65.7658167319
 30
0.0
 40
3.175
  0
CIRCLE
  5
1FA
330
1F
100
AcDbEntity
  8
INTERIOR_LOOPS
  6
CONTINUOUS
 62
     3
100
AcDbCircle
 10
18.689702682
 20
75.2522764262
 30
0.0
 40
3.175
  0
CIRCLE
  5
1FB
330
1F
100
AcDbEntity
  8
INTERIOR_LOOPS
  6
CONTINUOUS
 62
     3
100
AcDbCircle
 10
18.689702682
 20
84.7387361204
 30
0.0
 40
3.175
  0
CIRCLE
  5
1FC
330
1F
100
AcDbEntity
  8
INTERIOR_LOOPS
  6
CONTINUOUS
 62
     3
100
AcDbCircle
 10
28.415355746
 20
56.2793570377
 30
0.0
 40
3.175
  0
CIRCLE
  5
1FD
330
1F
100
AcDbEntity
  8
INTERIOR_LOOPS
  6
CONTINUOUS
 62
     3
100
AcDbCircle
 10
28.415355746
 20
65.7658167319
 30
0.0
 40
3.175
  0
CIRCLE
  5
1FE
330
1F
100
AcDbEntity
  8
INTERIOR_LOOPS
  6
CONTINUOUS
 62
     3
100
AcDbCircle
 10
28.415355746
 20
75.2522764262
 30
0.0
 40
3.175
  0
CIRCLE
  5
1FF
330
1F
100
AcDbEntity
  8
INTERIOR_LOOPS
  6
CONTINUOUS
 62
     3
100
AcDbCircle
 10
28.415355746
 20
84.7387361204
 30
0.0
 40
3.175
  0
CIRCLE
  5
200
330
1F
100
AcDbEntity
  8
INTERIOR_LOOPS
  6
CONTINUOUS
 62
     3
100
AcDbCircle
 10
28.415355746
 20
94.2251958147
 30
0.0
 40
3.175
  0
CIRCLE
  5
201
330
1F
100
AcDbEntity
  8
INTERIOR_LOOPS
  6
CONTINUOUS
 62
     3
100
AcDbCircle
 10
38.14100881
 20
56.2793570377
 30
0.0
 40
3.175
  0
CIRCLE
  5
202
330
1F
100
AcDbEntity
  8
INTERIOR_LOOPS
  6
CONTINUOUS
 62
     3
100
AcDbCircle
 10
38.14100881
 20
65.7658167319
 30
0.0
 40
3.175
  0
CIRCLE
  5
203
330
1F
100
AcDbEntity
  8
INTERIOR_LOOPS
  6
CONTINUOUS
 62
     3
100
AcDbCircle
 10
38.14100881
 20
75.2522764262
 30
0.0
 40
3.175
  0
CIRCLE
  5
204
330
1F
100
AcDbEntity
  8
INTERIOR_LOOPS
  6
CONTINUOUS
 62
     3
100
AcDbCircle
 10
38.14100881
 20
84.7387361204
 30
0.0
 40
3.175
  0
CIRCLE
  5
205
330
1F
100
AcDbEntity
  8
INTERIOR_LOOPS
  6
CONTINUOUS
 62
     3
100
AcDbCircle
 10
38.14100881
 20
94.2251958147
 30
0.0
 40
3.175
  0
CIRCLE
  5
206
330
1F
100
AcDbEntity
  8
INTERIOR_LOOPS
  6
CONTINUOUS
 62
     3
100
AcDbCircle
 10
47.866661874
 20
56.2793570377
 30
0.0
 40
3.175
  0
CIRCLE
  5
207
330
1F
100
AcDbEntity
  8
INTERIOR_LOOPS
  6
CONTINUOUS
 62
     3
100
AcDbCircle
 10
47.866661874
 20
65.7658167319
 30
0.0
 40
3.175
  0
CIRCLE
  5
208
330
1F
100
AcDbEntity
  8
INTERIOR_LOOPS
  6
CONTINUOUS
 62
     3
100
AcDbCircle
 10
47.866661874
 20
75.2522764262
 30
0.0
 40
3.175
  0
CIRCLE
  5
209
330
1F
100
AcDbEntity
  8
INTERIOR_LOOPS
  6
CONTINUOUS
 62
     3
100
AcDbCircle
 10
47.866661874
 20
84.7387361204
 30
0.0
 40
3.175
  0
CIRCLE
  5
20A
330
1F
100
AcDbEntity
  8
INTERIOR_LOOPS
  6
CONTINUOUS
 62
     3
100
AcDbCircle
 10
47.866661874
 20
94.2251958147
 30
0.0
 40
3.175
  0
CIRCLE
  5
20B
330
1F
100
AcDbEntity
  8
INTERIOR_LOOPS
  6
CONTINUOUS
 62
     3
100
AcDbCircle
 10
57.5923149381
 20
56.2793570377
 30
0.0
 40
3.175
  0
CIRCLE
  5
20C
330
1F
100
AcDbEntity
  8
INTERIOR_LOOPS
  6
CONTINUOUS
 62
     3
100
AcDbCircle
 10
57.5923149381
 20
65.7658167319
 30
0.0
 40
3.175
  0
CIRCLE
  5
20D
330
1F
100
AcDbEntity
  8
INTERIOR_LOOPS
  6
CONTINUOUS
 62
     3
100
AcDbCircle
 10
57.5923149381
 20
75.2522764262
 30
0.0
 40
3.175
  0
CIRCLE
  5
20E
330
1F
100
AcDbEntity
  8
INTERIOR_LOOPS
  6
CONTINUOUS
 62
     3
100
AcDbCircle
 10
57.5923149381
 20
84.7387361204
 30
0.0
 40
3.175
  0
CIRCLE
  5
20F
330
1F
100
AcDbEntity
  8
INTERIOR_LOOPS
  6
CONTINUOUS
 62
     3
100
AcDbCircle
 10
57.5923149381
 20
94.2251958147
 30
0.0
 40
3.175
  0
CIRCLE
  5
210
330
1F
100
AcDbEntity
  8
INTERIOR_LOOPS
  6
CONTINUOUS
 62
     3
100
AcDbCircle
 10
57.5923149381
 20
103.711655509
 30
0.0
 40
3.175
  0
CIRCLE
  5
211
330
1F
100
AcDbEntity
  8
INTERIOR_LOOPS
  6
CONTINUOUS
 62
     3
100
AcDbCircle
 10
67.3179680021
 20
56.2793570377
 30
0.0
 40
3.175
  0
CIRCLE
  5
212
330
1F
100
AcDbEntity
  8
INTERIOR_LOOPS
  6
CONTINUOUS
 62
     3
100
AcDbCircle
 10
67.3179680021
 20
65.7658167319
 30
0.0
 40
3.175
  0
CIRCLE
  5
213
330
1F
100
AcDbEntity
  8
INTERIOR_LOOPS
  6
CONTINUOUS
 62
     3
100
AcDbCircle
 10
67.3179680021
 20
75.2522764262
 30
0.0
 40
3.175
  0
CIRCLE
  5
214
330
1F
100
AcDbEntity
  8
INTERIOR_LOOPS
  6
CONTINUOUS
 62
     3
100
AcDbCircle
 10
67.3179680021
 20
84.7387361204
 30
0.0
 40
3.175
  0
CIRCLE
  5
215
330
1F
100
AcDbEntity
  8
INTERIOR_LOOPS
  6
CONTINUOUS
 62
     3
100
AcDbCircle
 10
67.3179680021
 20
94.2251958147
 30
0.0
 40
3.175
  0
CIRCLE
  5
216
330
1F
100
AcDbEntity
  8
INTERIOR_LOOPS
  6
CONTINUOUS
 62
     3
100
AcDbCircle
 10
67.3179680021
 20
103.711655509
 30
0.0
 40
3.175
  0
CIRCLE
  5
217
330
1F
100
AcDbEntity
  8
INTERIOR_LOOPS
  6
CONTINUOUS
 62
     3
100
AcDbCircle
 10
77.0436210661
 20
56.2793570377
 30
0.0
 40
3.175
  0
CIRCLE
  5
218
330
1F
100
AcDbEntity
  8
INTERIOR_LOOPS
  6
CONTINUOUS
 62
     3
100
AcDbCircle
 10
77.0436210661
 20
65.7658167319
 30
0.0
 40
3.175
  0
CIRCLE
  5
219
330
1F
100
AcDbEntity
  8
INTERIOR_LOOPS
  6
CONTINUOUS
 62
     3
100
AcDbCircle
 10
77.0436210661
 20
75.2522764262
 30
0.0
 40
3.175
  0
CIRCLE
  5
21A
330
1F
100
AcDbEntity
  8
INTERIOR_LOOPS
  6
CONTINUOUS
 62
     3
100
AcDbCircle
 10
77.0436210661
 20
84.7387361204
 30
0.0
 40
3.175
  0
CIRCLE
  5
21B
330
1F
100
AcDbEntity
  8
INTERIOR_LOOPS
  6
CONTINUOUS
 62
     3
100
AcDbCircle
 10
77.0436210661
 20
94.2251958147
 30
0.0
 40
3.175
  0
CIRCLE
  5
21C
330
1F
100
AcDbEntity
  8
INTERIOR_LOOPS
  6
CONTINUOUS
 62
     3
100
AcDbCircle
 10
77.0436210661
 20
103.711655509
 30
0.0
 40
3.175
  0
CIRCLE
  5
21D
330
1F
100
AcDbEntity
  8
INTERIOR_LOOPS
  6
CONTINUOUS
 62
     3
100
AcDbCircle
 10
86.7692741301
 20
56.2793570377
 30
0.0
 40
3.175
  0
CIRCLE
  5
21E
330
1F
100
AcDbEntity
  8
INTERIOR_LOOPS
  6
CONTINUOUS
 62
     3
100
AcDbCircle
 10
86.7692741301
 20
65.7658167319
 30
0.0
 40
3.175
  0
CIRCLE
  5
21F
330
1F
100
AcDbEntity
  8
INTERIOR_LOOPS
  6
CONTINUOUS
 62
     3
100
AcDbCircle
 10
86.7692741301
 20
75.2522764262
 30
0.0
 40
3.175
  0
CIRCLE
  5
220
330
1F
100
AcDbEntity
  8
INTERIOR_LOOPS
  6
CONTINUOUS
 62
     3
100
AcDbCircle
 10
86.7692741301
 20
84.7387361204
 30
0.0
 40
3.175
  0
CIRCLE
  5
221
330
1F
100
AcDbEntity
  8
INTERIOR_LOOPS
  6
CONTINUOUS
 62
     3
100
AcDbCircle
 10
86.7692741301
 20
94.2251958147
 30
0.0
 40
3.175
  0
CIRCLE
  5
222
330
1F
100
AcDbEntity
  8
INTERIOR_LOOPS
  6
CONTINUOUS
 62
     3
100
AcDbCircle
 10
86.7692741301
 20
103.711655509
 30
0.0
 40
3.175
  0
CIRCLE
  5
223
330
1F
100
AcDbEntity
  8
INTERIOR_LOOPS
  6
CONTINUOUS
 62
     3
100
AcDbCircle
 10
96.4949271941
 20
56.2793570377
 30
0.0
 40
3.175
  0
CIRCLE
  5
224
330
1F
100
AcDbEntity
  8
INTERIOR_LOOPS
  6
CONTINUOUS
 62
     3
100
AcDbCircle
 10
96.4949271941
 20
65.7658167319
 30
0.0
 40
3.175
  0
CIRCLE
  5
225
330
1F
100
AcDbEntity
  8
INTERIOR_LOOPS
  6
CONTINUOUS
 62
     3
100
AcDbCircle
 10
96.4949271941
 20
75.2522764262
 30
0.0
 40
3.175
  0
CIRCLE
  5
226
330
1F
100
AcDbEntity
  8
INTERIOR_LOOPS
  6
CONTINUOUS
 62
     3
100
AcDbCircle
 10
96.4949271941
 20
84.7387361204
 30
0.0
 40
3.175
  0
CIRCLE
  5
227
330
1F
100
AcDbEntity
  8
INTERIOR_LOOPS
  6
CONTINUOUS
 62
     3
100
AcDbCircle
 10
96.4949271941
 20
94.2251958147
 30
0.0
 40
3.175
  0
CIRCLE
  5
228
330
1F
100
AcDbEntity
  8
INTERIOR_LOOPS
  6
CONTINUOUS
 62
     3
100
AcDbCircle
 10
96.4949271941
 20
103.711655509
 30
0.0
 40
3.175
  0
CIRCLE
  5
229
330
1F
100
AcDbEntity
  8
INTERIOR_LOOPS
  6
CONTINUOUS
 62
     3
100
AcDbCircle
 10
106.2205802581
 20
56.2793570377
 30
0.0
 40
3.175
  0
CIRCLE
  5
22A
330
1F
100
AcDbEntity
  8
INTERIOR_LOOPS
  6
CONTINUOUS
 62
     3
100
AcDbCircle
 10
106.2205802581
 20
65.7658167319
 30
0.0
 40
3.175
  0
CIRCLE
  5
22B
330
1F
100
AcDbEntity
  8
INTERIOR_LOOPS
  6
CONTINUOUS
 62
     3
100
AcDbCircle
 10
106.2205802581
 20
75.2522764262
 30
0.0
 40
3.175
  0
CIRCLE
  5
22C
330
1F
100
AcDbEntity
  8
INTERIOR_LOOPS
  6
CONTINUOUS
 62
     3
100
AcDbCircle
 10
106.2205802581
 20
84.7387361204
 30
0.0
 40
3.175
  0
CIRCLE
  5
22D
330
1F
100
AcDbEntity
  8
INTERIOR_LOOPS
  6
CONTINUOUS
 62
     3
100
AcDbCircle
 10
106.2205802581
 20
94.2251958147
 30
0.0
 40
3.175
  0
CIRCLE
  5
22E
330
1F
100
AcDbEntity
  8
INTERIOR_LOOPS
  6
CONTINUOUS
 62
     3
100
AcDbCircle
 10
106.2205802581
 20
103.711655509
 30
0.0
 40
3.175
  0
CIRCLE
  5
22F
330
1F
100
AcDbEntity
  8
INTERIOR_LOOPS
  6
CONTINUOUS
 62
     3
100
AcDbCircle
 10
115.9462333221
 20
56.2793570377
 30
0.0
 40
3.175
  0
CIRCLE
  5
230
330
1F
100
AcDbEntity
  8
INTERIOR_LOOPS
  6
CONTINUOUS
 62
     3
100
AcDbCircle
 10
115.9462333221
 20
65.7658167319
 30
0.0
 40
3.175
  0
CIRCLE
  5
231
330
1F
100
AcDbEntity
  8
INTERIOR_LOOPS
  6
CONTINUOUS
 62
     3
100
AcDbCircle
 10
115.9462333221
 20
75.2522764262
 30
0.0
 40
3.175
  0
CIRCLE
  5
232
330
1F
100
AcDbEntity
  8
INTERIOR_LOOPS
  6
CONTINUOUS
 62
     3
100
AcDbCircle
 10
115.9462333221
 20
84.7387361204
 30
0.0
 40
3.175
  0
CIRCLE
  5
233
330
1F
100
AcDbEntity
  8
INTERIOR_LOOPS
  6
CONTINUOUS
 62
     3
100
AcDbCircle
 10
115.9462333221
 20
94.2251958147
 30
0.0
 40
3.175
  0
CIRCLE
  5
234
330
1F
100
AcDbEntity
  8
INTERIOR_LOOPS
  6
CONTINUOUS
 62
     3
100
AcDbCircle
 10
115.9462333221
 20
103.711655509
 30
0.0
 40
3.175
  0
CIRCLE
  5
235
330
1F
100
AcDbEntity
  8
INTERIOR_LOOPS
  6
CONTINUOUS
 62
     3
100
AcDbCircle
 10
125.6718863861
 20
56.2793570377
 30
0.0
 40
3.175
  0
CIRCLE
  5
236
330
1F
100
AcDbEntity
  8
INTERIOR_LOOPS
  6
CONTINUOUS
 62
     3
100
AcDbCircle
 10
125.6718863861
 20
65.7658167319
 30
0.0
 40
3.175
  0
CIRCLE
  5
237
330
1F
100
AcDbEntity
  8
INTERIOR_LOOPS
  6
CONTINUOUS
 62
     3
100
AcDbCircle
 10
125.6718863861
 20
75.2522764262
 30
0.0
 40
3.175
  0
CIRCLE
  5
238
330
1F
100
AcDbEntity
  8
INTERIOR_LOOPS
  6
CONTINUOUS
 62
     3
100
AcDbCircle
 10
125.6718863861
 20
84.7387361204
 30
0.0
 40
3.175
  0
CIRCLE
  5
239
330
1F
100
AcDbEntity
  8
INTERIOR_LOOPS
  6
CONTINUOUS
 62
     3
100
AcDbCircle
 10
125.6718863861
 20
94.2251958147
 30
0.0
 40
3.175
  0
CIRCLE
  5
23A
330
1F
100
AcDbEntity
  8
INTERIOR_LOOPS
  6
CONTINUOUS
 62
     3
100
AcDbCircle
 10
135.3975394501
 20
56.2793570377
 30
0.0
 40
3.175
  0
CIRCLE
  5
23B
330
1F
100
AcDbEntity
  8
INTERIOR_LOOPS
  6
CONTINUOUS
 62
     3
100
AcDbCircle
 10
135.3975394501
 20
65.7658167319
 30
0.0
 40
3.175
  0
CIRCLE
  5
23C
330
1F
100
AcDbEntity
  8
INTERIOR_LOOPS
  6
CONTINUOUS
 62
     3
100
AcDbCircle
 10
135.3975394501
 20
75.2522764262
 30
0.0
 40
3.175
  0
CIRCLE
  5
23D
330
1F
100
AcDbEntity
  8
INTERIOR_LOOPS
  6
CONTINUOUS
 62
     3
100
AcDbCircle
 10
135.3975394501
 20
84.7387361204
 30
0.0
 40
3.175
  0
CIRCLE
  5
23E
330
1F
100
AcDbEntity
  8
INTERIOR_LOOPS
  6
CONTINUOUS
 62
     3
100
AcDbCircle
 10
135.3975394501
 20
94.2251958147
 30
0.0
 40
3.175
  0
CIRCLE
  5
23F
330
1F
100
AcDbEntity
  8
INTERIOR_LOOPS
  6
CONTINUOUS
 62
     3
100
AcDbCircle
 10
145.1231925141
 20
56.2793570377
 30
0.0
 40
3.175
  0
CIRCLE
  5
240
330
1F
100
AcDbEntity
  8
INTERIOR_LOOPS
  6
CONTINUOUS
 62
     3
100
AcDbCircle
 10
145.1231925141
 20
65.7658167319
 30
0.0
 40
3.175
  0
CIRCLE
  5
241
330
1F
100
AcDbEntity
  8
INTERIOR_LOOPS
  6
CONTINUOUS
 62
     3
100
AcDbCircle
 10
145.1231925141
 20
75.2522764262
 30
0.0
 40
3.175
  0
CIRCLE
  5
242
330
1F
100
AcDbEntity
  8
INTERIOR_LOOPS
  6
CONTINUOUS
 62
     3
100
AcDbCircle
 10
145.1231925141
 20
84.7387361204
 30
0.0
 40
3.175
  0
CIRCLE
  5
243
330
1F
100
AcDbEntity
  8
INTERIOR_LOOPS
  6
CONTINUOUS
 62
     3
100
AcDbCircle
 10
145.1231925141
 20
94.2251958147
 30
0.0
 40
3.175
  0
CIRCLE
  5
244
330
1F
100
AcDbEntity
  8
INTERIOR_LOOPS
  6
CONTINUOUS
 62
     3
100
AcDbCircle
 10
154.8488455782
 20
56.2793570377
 30
0.0
 40
3.175
  0
CIRCLE
  5
245
330
1F
100
AcDbEntity
  8
INTERIOR_LOOPS
  6
CONTINUOUS
 62
     3
100
AcDbCircle
 10
154.8488455782
 20
65.7658167319
 30
0.0
 40
3.175
  0
CIRCLE
  5
246
330
1F
100
AcDbEntity
  8
INTERIOR_LOOPS
  6
CONTINUOUS
 62
     3
100
AcDbCircle
 10
154.8488455782
 20
75.2522764262
 30
0.0
 40
3.175
  0
CIRCLE
  5
247
330
1F
100
AcDbEntity
  8
INTERIOR_LOOPS
  6
CONTINUOUS
 62
     3
100
AcDbCircle
 10
154.8488455782
 20
84.7387361204
 30
0.0
 40
3.175
  0
CIRCLE
  5
248
330
1F
100
AcDbEntity
  8
INTERIOR_LOOPS
  6
CONTINUOUS
 62
     3
100
AcDbCircle
 10
164.5744986422
 20
56.2793570377
 30
0.0
 40
3.175
  0
CIRCLE
  5
249
330
1F
100
AcDbEntity
  8
INTERIOR_LOOPS
  6
CONTINUOUS
 62
     3
100
AcDbCircle
 10
164.5744986422
 20
65.7658167319
 30
0.0
 40
3.175
  0
CIRCLE
  5
24A
330
1F
100
AcDbEntity
  8
INTERIOR_LOOPS
  6
CONTINUOUS
 62
     3
100
AcDbCircle
 10
164.5744986422
 20
75.2522764262
 30
0.0
 40
3.175
  0
CIRCLE
  5
24B
330
1F
100
AcDbEntity
  8
INTERIOR_LOOPS
  6
CONTINUOUS
 62
     3
100
AcDbCircle
 10
164.5744986422
 20
84.7387361204
 30
0.0
 40
3.175
  0
CIRCLE
  5
24C
330
1F
100
AcDbEntity
  8
INTERIOR_LOOPS
  6
CONTINUOUS
 62
     3
100
AcDbCircle
 10
174.3001517062
 20
56.2793570377
 30
0.0
 40
3.175
  0
CIRCLE
  5
24D
330
1F
100
AcDbEntity
  8
INTERIOR_LOOPS
  6
CONTINUOUS
 62
     3
100
AcDbCircle
 10
174.3001517062
 20
65.7658167319
 30
0.0
 40
3.175
  0
CIRCLE
  5
24E
330
1F
100
AcDbEntity
  8
INTERIOR_LOOPS
  6
CONTINUOUS
 62
     3
100
AcDbCircle
 10
174.3001517062
 20
75.2522764262
 30
0.0
 40
3.175
  0
CIRCLE
  5
24F
330
1F
100
AcDbEntity
  8
INTERIOR_LOOPS
  6
CONTINUOUS
 62
     3
100
AcDbCircle
 10
184.0258047702
 20
56.2793570377
 30
0.0
 40
3.175
  0
CIRCLE
  5
250
330
1F
100
AcDbEntity
  8
INTERIOR_LOOPS
  6
CONTINUOUS
 62
     3
100
AcDbCircle
 10
184.0258047702
 20
65.7658167319
 30
0.0
 40
3.175
  0
CIRCLE
  5
251
330
1F
100
AcDbEntity
  8
INTERIOR_LOOPS
  6
CONTINUOUS
 62
     3
100
AcDbCircle
 10
193.7514578342
 20
56.2793570377
 30
0.0
 40
3.175
  0
ARC
  5
252
330
1F
100
AcDbEntity
  8
OUTER_LOOP
  6
CONTINUOUS
 62
     3
100
AcDbCircle
 10
-42.7130416855
 20
46.2876561973
 30
0.0
 40
4.999999999999994
100
AcDbArc
 50
145.9497095375
 51
224.9739852814
  0
ARC
  5
253
330
1F
100
AcDbEntity
  8
OUTER_LOOP
  6
CONTINUOUS
 62
     3
100
AcDbCircle
 10
85.7116550506
 20
-40.5
 30
0.0
 40
160.0
100
AcDbArc
 50
313.8222272711
 51
145.9497095375
  0
ARC
  5
254
330
1F
100
AcDbEntity
  8
OUTER_LOOP
  6
CONTINUOUS
 62
     3
100
AcDbCircle
 10
193.0372387697
 20
-152.3312079849
 30
0.0
 40
5.0
100
AcDbArc
 50
221.9736519447
 51
313.8222272711
  0
LINE
  5
255
330
1F
100
AcDbEntity
  8
OUTER_LOOP
  6
CONTINUOUS
 62
     3
100
AcDbLine
 10
183.0048462429
 20
-148.6549997934
 30
0.0
 11
186.0314519088
 21
-152.0194960772
 31
0.0
  0
ARC
  5
256
330
1F
100
AcDbEntity
  8
OUTER_LOOP
  6
CONTINUOUS
 62
     3
100
AcDbCircle
 10
180.7744888824
 20
-150.6613661718
 30
0.0
 40
3.000000000000015
100
AcDbArc
 50
41.9736519447
 51
114.6809762793
  0
LINE
  5
257
330
1F
100
AcDbEntity
  8
OUTER_LOOP
  6
CONTINUOUS
 62
     3
100
AcDbLine
 10
125.1973313057
 20
-172.9000364401
 30
0.0
 11
179.5217926766
 21
-147.9354255606
 31
0.0
  0
ARC
  5
258
330
1F
100
AcDbEntity
  8
OUTER_LOOP
  6
CONTINUOUS
 62
     3
100
AcDbCircle
 10
126.4500275115
 20
-175.6259770513
 30
0.0
 40
2.999999999999994
100
AcDbArc
 50
114.6809762793
 51
195.5592407017
  0
LINE
  5
259
330
1F
100
AcDbEntity
  8
OUTER_LOOP
  6
CONTINUOUS
 62
     3
100
AcDbLine
 10
127.2663766054
 20
-189.7421023589
 30
0.0
 11
123.5599666265
 21
-176.430680774
 31
0.0
  0
ARC
  5
25A
330
1F
100
AcDbEntity
  8
OUTER_LOOP
  6
CONTINUOUS
 62
     3
100
AcDbCircle
 10
122.4496084638
 20
-191.08327523
 30
0.0
 40
4.999999999999946
100
AcDbArc
 50
283.7106690565
 51
15.5592407017
  0
LINE
  5
25B
330
1F
100
AcDbEntity
  8
OUTER_LOOP
  6
CONTINUOUS
 62
     3
100
AcDbLine
 10
-27.0256294727
 20
23.5117114441
 30
0.0
 11
-46.2501805096
 21
42.7537279384
 31
0.0
  0
ARC
  5
25C
330
1F
100
AcDbEntity
  8
OUTER_LOOP
  6
CONTINUOUS
 62
     3
100
AcDbCircle
 10
-23.4884906487
 20
27.045639703
 30
0.0
 40
4.999999999999996
100
AcDbArc
 50
224.9739852814
 51
268.2120486455
  0
LINE
  5
25D
330
1F
100
AcDbEntity
  8
OUTER_LOOP
  6
CONTINUOUS
 62
     3
100
AcDbLine
 10
-7.9063982792
 20
21.5567972048
 30
0.0
 11
-23.6444935167
 21
22.0480739851
 31
0.0
  0
ARC
  5
25E
330
1F
100
AcDbEntity
  8
OUTER_LOOP
  6
CONTINUOUS
 62
     3
100
AcDbCircle
 10
-8.0
 20
18.558257774
 30
0.0
 40
3.0
100
AcDbArc
 50
0.0
 51
88.2120486455
  0
LINE
  5
25F
330
1F
100
AcDbEntity
  8
OUTER_LOOP
  6
CONTINUOUS
 62
     3
100
AcDbLine
 10
-5.0
 20
5.0
 30
0.0
 11
-5.0
 21
18.558257774
 31
0.0
  0
ARC
  5
260
330
1F
100
AcDbEntity
  8
OUTER_LOOP
  6
CONTINUOUS
 62
     3
100
AcDbCircle
 10
0.0
 20
5.0
 30
0.0
 40
5.000000000000004
100
AcDbArc
 50
180.0
 51
270.0
  0
LINE
  5
261
330
1F
100
AcDbEntity
  8
OUTER_LOOP
  6
CONTINUOUS
 62
     3
100
AcDbLine
 10
-12.5604922578
 20
-81.0
 30
0.0
 11
85.7116550506
 21
-81.0
 31
0.0
  0
LINE
  5
262
330
1F
100
AcDbEntity
  8
OUTER_LOOP
  6
CONTINUOUS
 62
     3
100
AcDbLine
 10
-17.5450012948
 20
-85.6067193621
 30
0.0
 11
-23.0397126477
 21
-155.2476723005
 31
0.0
  0
ARC
  5
263
330
1F
100
AcDbEntity
  8
OUTER_LOOP
  6
CONTINUOUS
 62
     3
100
AcDbCircle
 10
-12.5604922578
 20
-86.0
 30
0.0
 40
5.000000000000004
100
AcDbArc
 50
90.0
 51
175.4886759104
  0
ARC
  5
264
330
1F
100
AcDbEntity
  8
OUTER_LOOP
  6
CONTINUOUS
 62
     3
100
AcDbCircle
 10
85.7116550506
 20
-40.5
 30
0.0
 40
160.0
100
AcDbArc
 50
227.9743209867
 51
283.7106690565
  0
ARC
  5
265
330
1F
100
AcDbEntity
  8
OUTER_LOOP
  6
CONTINUOUS
 62
     3
100
AcDbCircle
 10
-18.0552036107
 20
-155.6409529383
 30
0.0
 40
4.999999999999994
100
AcDbArc
 50
175.4886759104
 51
227.9743209867
  0
ENDSEC
  0
SECTION
  2
OBJECTS
  0
DICTIONARY
  5
C
330
0
100
AcDbDictionary
  3
ACAD_GROUP
350
D
  3
ACAD_LAYOUT
350
1A
  3
ACAD_MATERIAL
350
43
  3
ACAD_MLEADERSTYLE
350
6B
  3
ACAD_MLINESTYLE
350
17
  3
ACAD_PLOTSETTINGS
350
19
  3
ACAD_SCALELIST
350
47
  3
ACAD_VISUALSTYLE
350
2A
  3
ACDBHEADERROUNDTRIPXREC
350
266
  3
ACDBVARIABLEDICTIONARY
350
287
  0
DICTIONARY
  5
292
330
8
100
AcDbDictionary
280
     1
  3
ACAD_XREC_ROUNDTRIP
360
293
  0
DICTIONARY
  5
D
102
{ACAD_REACTORS
330
C
102
}
330
C
100
AcDbDictionary
  0
DICTIONARY
  5
1A
102
{ACAD_REACTORS
330
C
102
}
330
C
100
AcDbDictionary
  0
DICTIONARY
  5
43
102
{ACAD_REACTORS
330
C
102
}
330
C
100
AcDbDictionary
  3
BYBLOCK
350
45
  3
BYLAYER
350
44
  3
GLOBAL
350
46
  0
DICTIONARY
  5
6B
102
{ACAD_REACTORS
330
C
102
}
330
C
100
AcDbDictionary
  3
STANDARD
350
6C
  0
DICTIONARY
  5
17
102
{ACAD_REACTORS
330
C
102
}
330
C
100
AcDbDictionary
  3
STANDARD
350
18
  0
DICTIONARY
  5
19
102
{ACAD_REACTORS
330
C
102
}
330
C
100
AcDbDictionary
  0
DICTIONARY
  5
47
102
{ACAD_REACTORS
330
C
102
}
330
C
100
AcDbDictionary
  3
A0
350
48
  3
A1
350
49
  3
A2
350
4A
  3
A3
350
4B
  3
A4
350
4C
  3
A5
350
4D
  3
A6
350
4E
  3
A7
350
4F
  3
A8
350
50
  3
A9
350
51
  3
B0
350
52
  3
B1
350
53
  3
B2
350
54
  3
B3
350
55
  3
B4
350
56
  3
B5
350
57
  3
B6
350
58
  3
B7
350
59
  3
B8
350
5A
  3
B9
350
5B
  3
C0
350
5C
  3
C1
350
5D
  3
C2
350
5E
  3
C3
350
5F
  3
C4
350
60
  3
C5
350
61
  3
C6
350
62
  3
C7
350
63
  3
C8
350
64
  3
C9
350
65
  3
D0
350
66
  3
D1
350
67
  3
D2
350
68
  0
DICTIONARY
  5
2A
102
{ACAD_REACTORS
330
C
102
}
330
C
100
AcDbDictionary
  3
2DWIREFRAME
350
2F
  3
BASIC
350
32
  3
BRIGHTEN
350
36
  3
COLORCHANGE
350
3A
  3
CONCEPTUAL
350
34
  3
DIM
350
35
  3
EDGECOLOROFF
350
3D
  3
FACEPATTERN
350
39
  3
FLAT
350
2B
  3
FLATWITHEDGES
350
2C
  3
GOURAUD
350
2D
  3
GOURAUDWITHEDGES
350
2E
  3
HIDDEN
350
31
  3
JITTEROFF
350
3B
  3
LINEPATTERN
350
38
  3
OVERHANGOFF
350
3C
  3
REALISTIC
350
33
  3
SHADED
350
42
  3
SHADED_WITH_EDGES
350
41
  3
SHADES_OF_GRAY
350
3E
  3
SKETCHY
350
3F
  3
THICKEN
350
37
  3
WIREFRAME
350
30
  3
X-RAY
350
40
  0
DICTIONARY
  5
266
102
{ACAD_REACTORS
330
C
102
}
330
C
100
AcDbDictionary
  3
CEPSNID
350
270
  3
CEPSNTYPE
350
26F
  3
DIMSTYLEDATA
350
286
  3
FINGERPRINTGUID
350
271
  3
HYPERLINKBASE
350
269
  3
INSUNITS
350
26E
  3
LAYOUTDICT
350
26B
  3
LWETCUNION
350
26D
  3
PLOTSETDICT
350
26C
  3
PSVPSCALE
350
273
  3
PUCSBASE
350
276
  3
PUCSORGBACK
350
27C
  3
PUCSORGBOTTOM
350
278
  3
PUCSORGFRONT
350
27B
  3
PUCSORGLEFT
350
279
  3
PUCSORGRIGHT
350
27A
  3
PUCSORGTOP
350
277
  3
PUCSORTHOREF
350
274
  3
PUCSORTHOVIEW
350
275
  3
STYLESHEET
350
26A
  3
TSTACKALIGN
350
267
  3
TSTACKSIZE
350
268
  3
UCSBASE
350
27F
  3
UCSORGBACK
350
285
  3
UCSORGBOTTOM
350
281
  3
UCSORGFRONT
350
284
  3
UCSORGLEFT
350
282
  3
UCSORGRIGHT
350
283
  3
UCSORGTOP
350
280
  3
UCSORTHOREF
350
27D
  3
UCSORTHOVIEW
350
27E
  3
VERSIONGUID
350
272
  0
DICTIONARY
  5
287
102
{ACAD_REACTORS
330
C
102
}
330
C
100
AcDbDictionary
  3
CANNOSCALE
350
294
  3
CENTEREXE
350
28E
  3
CENTERLTYPEFILE
350
28F
  3
CMLEADERSTYLE
350
289
  3
CTABLESTYLE
350
288
  3
DIMASSOC
350
290
  3
HIDETEXT
350
291
  3
MSLTSCALE
350
295
  3
PSOLHEIGHT
350
28B
  3
PSOLWIDTH
350
28A
  0
XRECORD
  5
293
102
{ACAD_REACTORS
330
292
102
}
330
292
100
AcDbXrecord
102
VTR_0.000_0.000_1.000_1.000_VISUALSTYLE
340
2F
102
VTR_0.000_0.000_1.000_1.000_GRIDDISPLAY
 70
     3
102
VTR_0.000_0.000_1.000_1.000_GRIDMAJOR
 70
     5
102
VTR_0.000_0.000_1.000_1.000_DEFAULTLIGHTING
280
     1
102
VTR_0.000_0.000_1.000_1.000_DEFAULTLIGHTINGTYPE
 70
     1
102
VTR_0.000_0.000_1.000_1.000_BRIGHTNESS
141
0.0
102
VTR_0.000_0.000_1.000_1.000_CONTRAST
142
0.0
  0
MATERIAL
  5
45
102
{ACAD_REACTORS
330
43
102
}
102
{ACAD_XDICTIONARY
360
298
102
}
330
43
100
AcDbMaterial
  1
BYBLOCK
  0
MATERIAL
  5
44
102
{ACAD_REACTORS
330
43
102
}
102
{ACAD_XDICTIONARY
360
296
102
}
330
43
100
AcDbMaterial
  1
BYLAYER
  0
MATERIAL
  5
46
102
{ACAD_REACTORS
330
43
102
}
102
{ACAD_XDICTIONARY
360
29A
102
}
330
43
100
AcDbMaterial
  1
GLOBAL
  0
ACAD_PROXY_OBJECT
  5
6C
102
{ACAD_REACTORS
330
6B
102
}
330
6B
100
AcDbProxyObject
 90
      499
 91
      505
 93
      610
310
40901902A4063FBFFFFFE0000000000000020400000000000020404214DD185B99185C990000000000000104090141901A00000000000004100000000000000041025764000000000000039000
340
14
340
0
340
11
340
0
 94
        0
1001
ACAD_MLEADERVER
1070
     2
  0
MLINESTYLE
  5
18
102
{ACAD_REACTORS
330
17
102
}
330
17
100
AcDbMlineStyle
  2
Standard
 70
     0
  3

 62
   256
 51
90.0
 52
90.0
 71
     2
 49
0.5
 62
   256
  6
BYLAYER
 49
-0.5
 62
   256
  6
BYLAYER
  0
ACAD_PROXY_OBJECT
  5
48
102
{ACAD_REACTORS
330
47
102
}
330
47
100
AcDbProxyObject
 90
      499
 91
      503
 93
       41
310
903313A31580
  0
ACAD_PROXY_OBJECT
  5
49
102
{ACAD_REACTORS
330
47
102
}
330
47
100
AcDbProxyObject
 90
      499
 91
      503
 93
      105
310
903313A324000000000000004000
  0
ACAD_PROXY_OBJECT
  5
4A
102
{ACAD_REACTORS
330
47
102
}
330
47
100
AcDbProxyObject
 90
      499
 91
      503
 93
      105
310
903313A344000000000000104000
  0
ACAD_PROXY_OBJECT
  5
4B
102
{ACAD_REACTORS
330
47
102
}
330
47
100
AcDbProxyObject
 90
      499
 91
      503
 93
      105
310
903313A354000000000000144000
  0
ACAD_PROXY_OBJECT
  5
4C
102
{ACAD_REACTORS
330
47
102
}
330
47
100
AcDbProxyObject
 90
      499
 91
      503
 93
      105
310
903313A384000000000000204000
  0
ACAD_PROXY_OBJECT
  5
4D
102
{ACAD_REACTORS
330
47
102
}
330
47
100
AcDbProxyObject
 90
      499
 91
      503
 93
      113
310
904313A31304000000000000244000
  0
ACAD_PROXY_OBJECT
  5
4E
102
{ACAD_REACTORS
330
47
102
}
330
47
100
AcDbProxyObject
 90
      499
 91
      503
 93
      113
310
904313A31364000000000000304000
  0
ACAD_PROXY_OBJECT
  5
4F
102
{ACAD_REACTORS
330
47
102
}
330
47
100
AcDbProxyObject
 90
      499
 91
      503
 93
      113
310
904313A32304000000000000344000
  0
ACAD_PROXY_OBJECT
  5
50
102
{ACAD_REACTORS
330
47
102
}
330
47
100
AcDbProxyObject
 90
      499
 91
      503
 93
      113
310
904313A333040000000000003E4000
  0
ACAD_PROXY_OBJECT
  5
51
102
{ACAD_REACTORS
330
47
102
}
330
47
100
AcDbProxyObject
 90
      499
 91
      503
 93
      113
310
904313A34304000000000000444000
  0
ACAD_PROXY_OBJECT
  5
52
102
{ACAD_REACTORS
330
47
102
}
330
47
100
AcDbProxyObject
 90
      499
 91
      503
 93
      113
310
904313A35304000000000000494000
  0
ACAD_PROXY_OBJECT
  5
53
102
{ACAD_REACTORS
330
47
102
}
330
47
100
AcDbProxyObject
 90
      499
 91
      503
 93
      121
310
905313A3130304000000000000594000
  0
ACAD_PROXY_OBJECT
  5
54
102
{ACAD_REACTORS
330
47
102
}
330
47
100
AcDbProxyObject
 90
      499
 91
      503
 93
      105
310
903323A310000000000000010100
  0
ACAD_PROXY_OBJECT
  5
55
102
{ACAD_REACTORS
330
47
102
}
330
47
100
AcDbProxyObject
 90
      499
 91
      503
 93
      105
310
903343A310000000000000410100
  0
ACAD_PROXY_OBJECT
  5
56
102
{ACAD_REACTORS
330
47
102
}
330
47
100
AcDbProxyObject
 90
      499
 91
      503
 93
      105
310
903383A310000000000000810100
  0
ACAD_PROXY_OBJECT
  5
57
102
{ACAD_REACTORS
330
47
102
}
330
47
100
AcDbProxyObject
 90
      499
 91
      503
 93
      113
310
90431303A310000000000000910100
  0
ACAD_PROXY_OBJECT
  5
58
102
{ACAD_REACTORS
330
47
102
}
330
47
100
AcDbProxyObject
 90
      499
 91
      503
 93
      121
310
9053130303A310000000000001650100
  0
ACAD_PROXY_OBJECT
  5
59
102
{ACAD_REACTORS
330
47
102
}
330
47
100
AcDbProxyObject
 90
      499
 91
      503
 93
      257
310
90E312F31323822203D2031272D3022000000000000200FC000000000000284000
  0
ACAD_PROXY_OBJECT
  5
5A
102
{ACAD_REACTORS
330
47
102
}
330
47
100
AcDbProxyObject
 90
      499
 91
      503
 93
      249
310
90D312F363422203D2031272D3022000000000000240FC000000000000284000
  0
ACAD_PROXY_OBJECT
  5
5B
102
{ACAD_REACTORS
330
47
102
}
330
47
100
AcDbProxyObject
 90
      499
 91
      503
 93
      249
310
90D312F333222203D2031272D3022000000000000280FC000000000000284000
  0
ACAD_PROXY_OBJECT
  5
5C
102
{ACAD_REACTORS
330
47
102
}
330
47
100
AcDbProxyObject
 90
      499
 91
      503
 93
      249
310
90D312F313622203D2031272D30220000000000002C0FC000000000000284000
  0
ACAD_PROXY_OBJECT
  5
5D
102
{ACAD_REACTORS
330
47
102
}
330
47
100
AcDbProxyObject
 90
      499
 91
      503
 93
      249
310
90D332F333222203D2031272D30220000000000002E0FC000000000000284000
  0
ACAD_PROXY_OBJECT
  5
5E
102
{ACAD_REACTORS
330
47
102
}
330
47
100
AcDbProxyObject
 90
      499
 91
      503
 93
      241
310
90C312F3822203D2031272D3022000000000000300FC000000000000284000
  0
ACAD_PROXY_OBJECT
  5
5F
102
{ACAD_REACTORS
330
47
102
}
330
47
100
AcDbProxyObject
 90
      499
 91
      503
 93
      249
310
90D332F313622203D2031272D3022000000000000320FC000000000000284000
  0
ACAD_PROXY_OBJECT
  5
60
102
{ACAD_REACTORS
330
47
102
}
330
47
100
AcDbProxyObject
 90
      499
 91
      503
 93
      241
310
90C312F3422203D2031272D3022000000000000340FC000000000000284000
  0
ACAD_PROXY_OBJECT
  5
61
102
{ACAD_REACTORS
330
47
102
}
330
47
100
AcDbProxyObject
 90
      499
 91
      503
 93
      241
310
90C332F3822203D2031272D3022000000000000360FC000000000000284000
  0
ACAD_PROXY_OBJECT
  5
62
102
{ACAD_REACTORS
330
47
102
}
330
47
100
AcDbProxyObject
 90
      499
 91
      503
 93
      241
310
90C312F3222203D2031272D3022000000000000380FC000000000000284000
  0
ACAD_PROXY_OBJECT
  5
63
102
{ACAD_REACTORS
330
47
102
}
330
47
100
AcDbProxyObject
 90
      499
 91
      503
 93
      241
310
90C332F3422203D2031272D30220000000000003A0FC000000000000284000
  0
ACAD_PROXY_OBJECT
  5
64
102
{ACAD_REACTORS
330
47
102
}
330
47
100
AcDbProxyObject
 90
      499
 91
      503
 93
      161
310
90A3122203D2031272D30224000000000000284000
  0
ACAD_PROXY_OBJECT
  5
65
102
{ACAD_REACTORS
330
47
102
}
330
47
100
AcDbProxyObject
 90
      499
 91
      503
 93
      257
310
90E312D312F3222203D2031272D30220000000000003E0FC000000000000284000
  0
ACAD_PROXY_OBJECT
  5
66
102
{ACAD_REACTORS
330
47
102
}
330
47
100
AcDbProxyObject
 90
      499
 91
      503
 93
      225
310
90A3322203D2031272D302200000000000002100000000000000284000
  0
ACAD_PROXY_OBJECT
  5
67
102
{ACAD_REACTORS
330
47
102
}
330
47
100
AcDbProxyObject
 90
      499
 91
      503
 93
      225
310
90A3622203D2031272D302200000000000006100000000000000284000
  0
ACAD_PROXY_OBJECT
  5
68
102
{ACAD_REACTORS
330
47
102
}
330
47
100
AcDbProxyObject
 90
      499
 91
      503
 93
      249
310
90D31272D3022203D2031272D30220000000000000A100000000000000284000
  0
ACAD_PROXY_OBJECT
  5
2F
102
{ACAD_REACTORS
330
2A
102
}
330
2A
100
AcDbProxyObject
 90
      499
 91
      501
 93
      436
310
42CC9915DA5C99599C985B595049028333333333333E33F0000000000000F90107901411070040501600405405064090741402480A0340
1001
ACAD
1000
AcDbSavedByObjectVersion
1070
     0
  0
ACAD_PROXY_OBJECT
  5
32
102
{ACAD_REACTORS
330
2A
102
}
330
2A
100
AcDbProxyObject
 90
      499
 91
      501
 93
      388
310
4150985CDA58D07406404333333333333E33F0000000000000F90107A41107004050150841D405064090741402480A0350
1001
ACAD
1000
AcDbSavedByObjectVersion
1070
     0
  0
ACAD_PROXY_OBJECT
  5
36
102
{ACAD_REACTORS
330
2A
102
}
330
2A
100
AcDbProxyObject
 90
      499
 91
      501
 93
      428
310
42109C9A59DA1D195B90C409028333333333333E33F0000000000000F9010790141107004050150841D405064090741402480A029950
1001
ACAD
1000
AcDbSavedByObjectVersion
1070
     0
  0
ACAD_PROXY_OBJECT
  5
3A
102
{ACAD_REACTORS
330
2A
102
}
330
2A
100
AcDbProxyObject
 90
      499
 91
      501
 93
      452
310
42D0DBDB1BDC90DA185B99D95104090240C333333333333E33F0000000000000F90108901411070040501508421405064090741402480A0350
1001
ACAD
1000
AcDbSavedByObjectVersion
1070
     0
  0
ACAD_PROXY_OBJECT
  5
34
102
{ACAD_REACTORS
330
2A
102
}
330
2A
100
AcDbProxyObject
 90
      499
 91
      501
 93
      500
310
4290DBDB98D95C1D1D585B10940D028333333333333E33F0000000000000F90107902409070040501000000000018199010841D405064090740C02480A0340
1001
ACAD
1000
AcDbSavedByObjectVersion
1070
     0
  0
ACAD_PROXY_OBJECT
  5
35
102
{ACAD_REACTORS
330
2A
102
}
330
2A
100
AcDbProxyObject
 90
      499
 91
      501
 93
      412
310
40D11A5B50B409028333333333333E33F0000000000000F9010790141107004050150841D405064090741402480A02677FFFFFD0
1001
ACAD
1000
AcDbSavedByObjectVersion
1070
     0
  0
ACAD_PROXY_OBJECT
  5
3D
102
{ACAD_REACTORS
330
2A
102
}
330
2A
100
AcDbProxyObject
 90
      499
 91
      501
 93
      452
310
43115919D950DBDB1BDC93D999916409028333333333333E33F0000000000000F9010790141107004050150841D405064090741402480A0350
1001
ACAD
1000
AcDbSavedByObjectVersion
1070
     0
  0
ACAD_PROXY_OBJECT
  5
39
102
{ACAD_REACTORS
330
2A
102
}
330
2A
100
AcDbProxyObject
 90
      499
 91
      501
 93
      444
310
42D19858D95C185D1D195C9B90F409028333333333333E33F0000000000000F9010790141107004050150841D405064090741402480A0350
1001
ACAD
1000
AcDbSavedByObjectVersion
1070
     0
  0
ACAD_PROXY_OBJECT
  5
2B
102
{ACAD_REACTORS
330
2A
102
}
330
2A
100
AcDbProxyObject
 90
      499
 91
      501
 93
      380
310
41119B185D240901404333333333333E33F0000000000000F9010740A907004050150841D405064090741402480A1B50
1001
ACAD
1000
AcDbSavedByObjectVersion
1070
     0
  0
ACAD_PROXY_OBJECT
  5
2C
102
{ACAD_REACTORS
330
2A
102
}
330
2A
100
AcDbProxyObject
 90
      499
 91
      501
 93
      468
310
43519B185D15DA5D1A115919D95CD0140901404333333333333E33F0000000000000F90107409019070040501600405405064090741402480A1B50
1001
ACAD
1000
AcDbSavedByObjectVersion
1070
     0
  0
ACAD_PROXY_OBJECT
  5
2D
102
{ACAD_REACTORS
330
2A
102
}
330
2A
100
AcDbProxyObject
 90
      499
 91
      501
 93
      404
310
41D1DBDD5C985D5910240902404333333333333E33F0000000000000F9010740A9070040501641D405064090741402480A1B50
1001
ACAD
1000
AcDbSavedByObjectVersion
1070
     0
  0
ACAD_PROXY_OBJECT
  5
2E
102
{ACAD_REACTORS
330
2A
102
}
330
2A
100
AcDbProxyObject
 90
      499
 91
      501
 93
      492
310
4411DBDD5C985D5915DA5D1A115919D95CD0340902404333333333333E33F0000000000000F90107409019070040501600405405064090741402480A1B50
1001
ACAD
1000
AcDbSavedByObjectVersion
1070
     0
  0
ACAD_PROXY_OBJECT
  5
31
102
{ACAD_REACTORS
330
2A
102
}
330
2A
100
AcDbProxyObject
 90
      499
 91
      501
 93
      476
310
41921A5919195B90640502408333333333333E33F0000000000000F901079024090700405020000000000001110200405405064090740C02480A0340
1001
ACAD
1000
AcDbSavedByObjectVersion
1070
     0
  0
ACAD_PROXY_OBJECT
  5
3B
102
{ACAD_REACTORS
330
2A
102
}
330
2A
100
AcDbProxyObject
 90
      499
 91
      501
 93
      428
310
42529A5D1D195C93D999914409028333333333333E33F0000000000000F9010790141107004050150A41D405064090741402480A0350
1001
ACAD
1000
AcDbSavedByObjectVersion
1070
     0
  0
ACAD_PROXY_OBJECT
  5
38
102
{ACAD_REACTORS
330
2A
102
}
330
2A
100
AcDbProxyObject
 90
      499
 91
      501
 93
      444
310
42D31A5B995C185D1D195C9B90E409028333333333333E33F0000000000000F9010790141107004050750841D405064090741402483A0350
1001
ACAD
1000
AcDbSavedByObjectVersion
1070
     0
  0
ACAD_PROXY_OBJECT
  5
3C
102
{ACAD_REACTORS
330
2A
102
}
330
2A
100
AcDbProxyObject
 90
      499
 91
      501
 93
      444
310
42D3DD995C9A185B99D3D999915409028333333333333E33F0000000000000F9010790141107004050150941D405064090741402480A0350
1001
ACAD
1000
AcDbSavedByObjectVersion
1070
     0
  0
ACAD_PROXY_OBJECT
  5
33
102
{ACAD_REACTORS
330
2A
102
}
330
2A
100
AcDbProxyObject
 90
      499
 91
      501
 93
      428
310
425499585B1A5CDD1A58D08409038333333333333E33F0000000000000F9010740A907004050150800405405064090740C02480A1B40
1001
ACAD
1000
AcDbSavedByObjectVersion
1070
     0
  0
ACAD_PROXY_OBJECT
  5
42
102
{ACAD_REACTORS
330
2A
102
}
330
2A
100
AcDbProxyObject
 90
      499
 91
      501
 93
      420
310
4194DA1859195911B40902404333333333333E33F0000000000000F9010740A41107004050150800405405064090840C02480A0B40
1001
ACAD
1000
AcDbSavedByObjectVersion
1070
     0
  0
ACAD_PROXY_OBJECT
  5
41
102
{ACAD_REACTORS
330
2A
102
}
330
2A
100
AcDbProxyObject
 90
      499
 91
      501
 93
      516
310
4454DA18591959081DDA5D1A08195919D95CD1A40902404333333333333E33F0000000000000F901074090142907004050250800405405064090740C02480A0B40
1001
ACAD
1000
AcDbSavedByObjectVersion
1070
     0
  0
ACAD_PROXY_OBJECT
  5
3E
102
{ACAD_REACTORS
330
2A
102
}
330
2A
100
AcDbProxyObject
 90
      499
 91
      501
 93
      532
310
4394DA1859195CC81BD98811DC985E5174090240C333333333333E33F0000000000000F901079024090741D01000000000000111010841D405064090740C02480A0340
1001
ACAD
1000
AcDbSavedByObjectVersion
1070
     0
  0
ACAD_PROXY_OBJECT
  5
3F
102
{ACAD_REACTORS
330
2A
102
}
330
2A
100
AcDbProxyObject
 90
      499
 91
      501
 93
      476
310
41D4DAD95D18DA1E51840502408333333333333E33F0000000000000F901079024090741D01000000000000111010B41D405064090741802480A0340
1001
ACAD
1000
AcDbSavedByObjectVersion
1070
     0
  0
ACAD_PROXY_OBJECT
  5
37
102
{ACAD_REACTORS
330
2A
102
}
330
2A
100
AcDbProxyObject
 90
      499
 91
      501
 93
      412
310
41D51A1A58DAD95B90D409028333333333333E33F0000000000000F9010790141107004050150C41D405064090741402480A0350
1001
ACAD
1000
AcDbSavedByObjectVersion
1070
     0
  0
ACAD_PROXY_OBJECT
  5
30
102
{ACAD_REACTORS
330
2A
102
}
330
2A
100
AcDbProxyObject
 90
      499
 91
      501
 93
      420
310
4255DA5C99599C985B595059028333333333333E33F0000000000000F90107901411070040501600405405064090740C02480A0340
1001
ACAD
1000
AcDbSavedByObjectVersion
1070
     0
  0
ACAD_PROXY_OBJECT
  5
40
102
{ACAD_REACTORS
330
2A
102
}
330
2A
100
AcDbProxyObject
 90
      499
 91
      501
 93
      404
310
41560B54985E51940902404000000000000E03F0000000000000F9010740501907004050150841D405064090740C02480A1B40
1001
ACAD
1000
AcDbSavedByObjectVersion
1070
     0
  0
XRECORD
  5
270
102
{ACAD_REACTORS
330
266
102
}
330
266
100
AcDbXrecord
340
0
  0
XRECORD
  5
26F
102
{ACAD_REACTORS
330
266
102
}
330
266
100
AcDbXrecord
 90
        0
  0
XRECORD
  5
286
102
{ACAD_REACTORS
330
266
102
}
330
266
100
AcDbXrecord
1000
DSTYLE
1002
{
1070
   340
340
11
1002
}
  0
XRECORD
  5
271
102
{ACAD_REACTORS
330
266
102
}
330
266
100
AcDbXrecord
  1
{f97835b0-8742-48d6-b8e6-4e54817efd81}
  0
XRECORD
  5
269
102
{ACAD_REACTORS
330
266
102
}
330
266
100
AcDbXrecord
  1

  0
XRECORD
  5
26E
102
{ACAD_REACTORS
330
266
102
}
330
266
100
AcDbXrecord
 90
        4
  0
XRECORD
  5
26B
102
{ACAD_REACTORS
330
266
102
}
330
266
100
AcDbXrecord
340
1A
  0
XRECORD
  5
26D
102
{ACAD_REACTORS
330
266
102
}
330
266
100
AcDbXrecord
 90
    10781
  0
XRECORD
  5
26C
102
{ACAD_REACTORS
330
266
102
}
330
266
100
AcDbXrecord
340
19
  0
XRECORD
  5
273
102
{ACAD_REACTORS
330
266
102
}
330
266
100
AcDbXrecord
 40
0.0
  0
XRECORD
  5
276
102
{ACAD_REACTORS
330
266
102
}
330
266
100
AcDbXrecord
340
0
  0
XRECORD
  5
27C
102
{ACAD_REACTORS
330
266
102
}
330
266
100
AcDbXrecord
 10
0.0
 20
0.0
 30
0.0
  0
XRECORD
  5
278
102
{ACAD_REACTORS
330
266
102
}
330
266
100
AcDbXrecord
 10
0.0
 20
0.0
 30
0.0
  0
XRECORD
  5
27B
102
{ACAD_REACTORS
330
266
102
}
330
266
100
AcDbXrecord
 10
0.0
 20
0.0
 30
0.0
  0
XRECORD
  5
279
102
{ACAD_REACTORS
330
266
102
}
330
266
100
AcDbXrecord
 10
0.0
 20
0.0
 30
0.0
  0
XRECORD
  5
27A
102
{ACAD_REACTORS
330
266
102
}
330
266
100
AcDbXrecord
 10
0.0
 20
0.0
 30
0.0
  0
XRECORD
  5
277
102
{ACAD_REACTORS
330
266
102
}
330
266
100
AcDbXrecord
 10
0.0
 20
0.0
 30
0.0
  0
XRECORD
  5
274
102
{ACAD_REACTORS
330
266
102
}
330
266
100
AcDbXrecord
340
0
  0
XRECORD
  5
275
102
{ACAD_REACTORS
330
266
102
}
330
266
100
AcDbXrecord
 70
     0
  0
XRECORD
  5
26A
102
{ACAD_REACTORS
330
266
102
}
330
266
100
AcDbXrecord
  1

  0
XRECORD
  5
267
102
{ACAD_REACTORS
330
266
102
}
330
266
100
AcDbXrecord
 90
        1
  0
XRECORD
  5
268
102
{ACAD_REACTORS
330
266
102
}
330
266
100
AcDbXrecord
 90
       70
  0
XRECORD
  5
27F
102
{ACAD_REACTORS
330
266
102
}
330
266
100
AcDbXrecord
340
0
  0
XRECORD
  5
285
102
{ACAD_REACTORS
330
266
102
}
330
266
100
AcDbXrecord
 10
0.0
 20
0.0
 30
0.0
  0
XRECORD
  5
281
102
{ACAD_REACTORS
330
266
102
}
330
266
100
AcDbXrecord
 10
0.0
 20
0.0
 30
0.0
  0
XRECORD
  5
284
102
{ACAD_REACTORS
330
266
102
}
330
266
100
AcDbXrecord
 10
0.0
 20
0.0
 30
0.0
  0
XRECORD
  5
282
102
{ACAD_REACTORS
330
266
102
}
330
266
100
AcDbXrecord
 10
0.0
 20
0.0
 30
0.0
  0
XRECORD
  5
283
102
{ACAD_REACTORS
330
266
102
}
330
266
100
AcDbXrecord
 10
0.0
 20
0.0
 30
0.0
  0
XRECORD
  5
280
102
{ACAD_REACTORS
330
266
102
}
330
266
100
AcDbXrecord
 10
0.0
 20
0.0
 30
0.0
  0
XRECORD
  5
27D
102
{ACAD_REACTORS
330
266
102
}
330
266
100
AcDbXrecord
340
0
  0
XRECORD
  5
27E
102
{ACAD_REACTORS
330
266
102
}
330
266
100
AcDbXrecord
 70
     0
  0
XRECORD
  5
272
102
{ACAD_REACTORS
330
266
102
}
330
266
100
AcDbXrecord
  1
{FAEB1C32-E019-11D5-929B-00C0DF256EC4}
  0
DICTIONARYVAR
  5
294
102
{ACAD_REACTORS
330
287
102
}
330
287
100
DictionaryVariables
280
     0
  1
1:1
  0
DICTIONARYVAR
  5
28E
102
{ACAD_REACTORS
330
287
102
}
330
287
100
DictionaryVariables
280
     0
  1
3.500000
  0
DICTIONARYVAR
  5
28F
102
{ACAD_REACTORS
330
287
102
}
330
287
100
DictionaryVariables
280
     0
  1
acadiso.lin
  0
DICTIONARYVAR
  5
289
102
{ACAD_REACTORS
330
287
102
}
330
287
100
DictionaryVariables
280
     0
  1
Standard
  0
DICTIONARYVAR
  5
288
102
{ACAD_REACTORS
330
287
102
}
330
287
100
DictionaryVariables
280
     0
  1
Standard
  0
DICTIONARYVAR
  5
290
102
{ACAD_REACTORS
330
287
102
}
330
287
100
DictionaryVariables
280
     0
  1
2
  0
DICTIONARYVAR
  5
291
102
{ACAD_REACTORS
330
287
102
}
330
287
100
DictionaryVariables
280
     0
  1
1
  0
DICTIONARYVAR
  5
295
102
{ACAD_REACTORS
330
287
102
}
330
287
100
DictionaryVariables
280
     0
  1
1
  0
DICTIONARYVAR
  5
28B
102
{ACAD_REACTORS
330
287
102
}
330
287
100
DictionaryVariables
280
     0
  1
80.000000
  0
DICTIONARYVAR
  5
28A
102
{ACAD_REACTORS
330
287
102
}
330
287
100
DictionaryVariables
280
     0
  1
5.000000
  0
DICTIONARY
  5
298
330
45
100
AcDbDictionary
280
     1
  3
ACAD_XREC_ROUNDTRIP
360
299
  0
DICTIONARY
  5
296
330
44
100
AcDbDictionary
280
     1
  3
ACAD_XREC_ROUNDTRIP
360
297
  0
DICTIONARY
  5
29A
330
46
100
AcDbDictionary
280
     1
  3
ACAD_XREC_ROUNDTRIP
360
29B
  0
XRECORD
  5
299
102
{ACAD_REACTORS
330
298
102
}
330
298
100
AcDbXrecord
102
MATERIAL
148
0.0
149
0.0
149
0.0
 93
        0
 94
      127
282
     0
 72
     1
 77
     1
171
     1
175
     1
179
     1
273
     0
  0
XRECORD
  5
297
102
{ACAD_REACTORS
330
296
102
}
330
296
100
AcDbXrecord
102
MATERIAL
148
0.0
149
0.0
149
0.0
 93
        0
 94
      127
282
     0
 72
     1
 77
     1
171
     1
175
     1
179
     1
273
     0
  0
XRECORD
  5
29B
102
{ACAD_REACTORS
330
29A
102
}
330
29A
100
AcDbXrecord
102
MATERIAL
148
0.0
149
0.0
149
0.0
 93
        0
 94
      127
282
     0
 72
     1
 77
     1
171
     1
175
     1
179
     1
273
     0
  0
ENDSEC
  0
EOF
