ISO-10303-21;
HEADER;
FILE_DESCRIPTION(('STEP AP214'),
    '1');
FILE_NAME('êíîïêà',
    '',
    ('UNSPECIFIED'),
    ('UNSPECIFIED'),
    'ASCON STEP Converter 1.3',
    'ASCON Math Kernel',
    '');
FILE_SCHEMA(('AUTOMOTIVE_DESIGN { 1 0 10303 214 3 1 1}'));
ENDSEC;

DATA;
#1=SHAPE_REPRESENTATION('NONE',(#2),#6);
#2=AXIS2_PLACEMENT_3D('',#3,#4,#5);
#3=CARTESIAN_POINT('',(0.,0.,0.));
#4=DIRECTION('',(0.,0.,1.));
#5=DIRECTION('',(1.,0.,0.));
#6=(GEOMETRIC_REPRESENTATION_CONTEXT(3)GLOBAL_UNCERTAINTY_ASSIGNED_CONTEXT((#8))
GLOBAL_UNIT_ASSIGNED_CONTEXT((#7,#9,#10))REPRESENTATION_CONTEXT('NONE','NONE'));
#7=(LENGTH_UNIT()NAMED_UNIT(*)SI_UNIT(.MILLI.,.METRE.));
#8=UNCERTAINTY_MEASURE_WITH_UNIT(LENGTH_MEASURE(1.E-005),#7,'NONE','NONE');
#9=(NAMED_UNIT(*)PLANE_ANGLE_UNIT()SI_UNIT($,.RADIAN.));
#10=(NAMED_UNIT(*)SI_UNIT($,.STERADIAN.)SOLID_ANGLE_UNIT());
#11=SHAPE_DEFINITION_REPRESENTATION(#12,#1);
#12=PRODUCT_DEFINITION_SHAPE('NONE','NONE',#13);
#13=PRODUCT_DEFINITION('','UNSPECIFIED',#14,#22);
#14=PRODUCT_DEFINITION_FORMATION_WITH_SPECIFIED_SOURCE('ANY','UNSPECIFIED',#15,.NOT_KNOWN.);
#15=PRODUCT('\X\CA\X\ED\X\EE\X\EF\X\EA\X\E0_01','_X_CA_X_ED_X_EE_X_EF_X_EA_X_E0_01',
'NONE',(#25));
#16=PERSON('UNSPECIFIED','Àëåêñåé','UNSPECIFIED',('UNSPECIFIED'),('UNSPECIFIED'),
('UNSPECIFIED'));
#17=ORGANIZATION('UNSPECIFIED','UNSPECIFIED','UNSPECIFIED');
#18=PERSON_AND_ORGANIZATION(#16,#17);
#19=PERSON_AND_ORGANIZATION_ROLE('design_owner');
#20=CC_DESIGN_PERSON_AND_ORGANIZATION_ASSIGNMENT(#18,#19,(#15));
#21=PRODUCT_RELATED_PRODUCT_CATEGORY('detail','',(#15));
#22=DESIGN_CONTEXT('detailed design',#23,'design');
#23=APPLICATION_CONTEXT('configuration controlled 3d designs of mechanical parts and assemblies');
#24=APPLICATION_PROTOCOL_DEFINITION('international standard','automotive_design',
2011,#23);
#25=MECHANICAL_CONTEXT('NONE',#23,'mechanical');
#26=CC_DESIGN_DATE_AND_TIME_ASSIGNMENT(#27,#31,(#13));
#27=DATE_AND_TIME(#28,#29);
#28=CALENDAR_DATE(0,1,1);
#29=LOCAL_TIME(0,0,0.,#30);
#30=COORDINATED_UNIVERSAL_TIME_OFFSET(0,0,.AHEAD.);
#31=DATE_TIME_ROLE('creation_date');
#32=CC_DESIGN_APPROVAL(#33,(#13));
#33=APPROVAL(#34,'UNSPECIFIED');
#34=APPROVAL_STATUS('not_yet_approved');
#35=APPROVAL_DATE_TIME(#36,#33);
#36=DATE_AND_TIME(#37,#38);
#37=CALENDAR_DATE(0,1,1);
#38=LOCAL_TIME(0,0,0.,#39);
#39=COORDINATED_UNIVERSAL_TIME_OFFSET(0,0,.AHEAD.);
#40=DERIVED_UNIT((#44,#41));
#41=DERIVED_UNIT_ELEMENT(#42,-1.);
#42=VOLUME_UNIT(#43);
#43=DIMENSIONAL_EXPONENTS(3.,0.,0.,0.,0.,0.,0.);
#44=(NAMED_UNIT($)MASS_UNIT()SI_UNIT($,.GRAM.));
#45=MANIFOLD_SOLID_BREP('',#46);
#46=CLOSED_SHELL('',(#58,#67,#76,#85,#94,#103,#112,#121,#130));
#47=COLOUR_RGB($,1.,0.0588235294117647,0.0588235294117647);
#48=FILL_AREA_STYLE_COLOUR($,#47);
#49=FILL_AREA_STYLE($,(#48));
#50=SURFACE_STYLE_FILL_AREA(#49);
#51=SURFACE_SIDE_STYLE('',(#50));
#52=SURFACE_STYLE_USAGE(.BOTH.,#51);
#53=PRESENTATION_STYLE_ASSIGNMENT((#52));
#54=MECHANICAL_DESIGN_GEOMETRIC_PRESENTATION_REPRESENTATION('NONE',(#55,#66,#75,
#84,#93,#102,#111,#120,#129,#138),#6);
#55=STYLED_ITEM('',(#53),#45);
#56=ADVANCED_BREP_SHAPE_REPRESENTATION('NONE',(#45),#6);
#57=SHAPE_REPRESENTATION_RELATIONSHIP('','',#1,#56);
#58=ADVANCED_FACE('',(#139,#141),#143,.T.);
#59=COLOUR_RGB($,1.,0.0588235294117647,0.0588235294117647);
#60=FILL_AREA_STYLE_COLOUR($,#59);
#61=FILL_AREA_STYLE($,(#60));
#62=SURFACE_STYLE_FILL_AREA(#61);
#63=SURFACE_SIDE_STYLE('',(#62));
#64=SURFACE_STYLE_USAGE(.BOTH.,#63);
#65=PRESENTATION_STYLE_ASSIGNMENT((#64));
#66=STYLED_ITEM('',(#65),#58);
#67=ADVANCED_FACE('',(#148,#150),#152,.F.);
#68=COLOUR_RGB($,1.,0.0588235294117647,0.0588235294117647);
#69=FILL_AREA_STYLE_COLOUR($,#68);
#70=FILL_AREA_STYLE($,(#69));
#71=SURFACE_STYLE_FILL_AREA(#70);
#72=SURFACE_SIDE_STYLE('',(#71));
#73=SURFACE_STYLE_USAGE(.BOTH.,#72);
#74=PRESENTATION_STYLE_ASSIGNMENT((#73));
#75=STYLED_ITEM('',(#74),#67);
#76=ADVANCED_FACE('',(#157),#159,.T.);
#77=COLOUR_RGB($,1.,0.0588235294117647,0.0588235294117647);
#78=FILL_AREA_STYLE_COLOUR($,#77);
#79=FILL_AREA_STYLE($,(#78));
#80=SURFACE_STYLE_FILL_AREA(#79);
#81=SURFACE_SIDE_STYLE('',(#80));
#82=SURFACE_STYLE_USAGE(.BOTH.,#81);
#83=PRESENTATION_STYLE_ASSIGNMENT((#82));
#84=STYLED_ITEM('',(#83),#76);
#85=ADVANCED_FACE('',(#164,#166),#168,.T.);
#86=COLOUR_RGB($,1.,0.0588235294117647,0.0588235294117647);
#87=FILL_AREA_STYLE_COLOUR($,#86);
#88=FILL_AREA_STYLE($,(#87));
#89=SURFACE_STYLE_FILL_AREA(#88);
#90=SURFACE_SIDE_STYLE('',(#89));
#91=SURFACE_STYLE_USAGE(.BOTH.,#90);
#92=PRESENTATION_STYLE_ASSIGNMENT((#91));
#93=STYLED_ITEM('',(#92),#85);
#94=ADVANCED_FACE('',(#173,#175),#177,.T.);
#95=COLOUR_RGB($,1.,0.0588235294117647,0.0588235294117647);
#96=FILL_AREA_STYLE_COLOUR($,#95);
#97=FILL_AREA_STYLE($,(#96));
#98=SURFACE_STYLE_FILL_AREA(#97);
#99=SURFACE_SIDE_STYLE('',(#98));
#100=SURFACE_STYLE_USAGE(.BOTH.,#99);
#101=PRESENTATION_STYLE_ASSIGNMENT((#100));
#102=STYLED_ITEM('',(#101),#94);
#103=ADVANCED_FACE('',(#182,#184),#186,.T.);
#104=COLOUR_RGB($,1.,0.0588235294117647,0.0588235294117647);
#105=FILL_AREA_STYLE_COLOUR($,#104);
#106=FILL_AREA_STYLE($,(#105));
#107=SURFACE_STYLE_FILL_AREA(#106);
#108=SURFACE_SIDE_STYLE('',(#107));
#109=SURFACE_STYLE_USAGE(.BOTH.,#108);
#110=PRESENTATION_STYLE_ASSIGNMENT((#109));
#111=STYLED_ITEM('',(#110),#103);
#112=ADVANCED_FACE('',(#191,#193),#195,.F.);
#113=COLOUR_RGB($,1.,0.0588235294117647,0.0588235294117647);
#114=FILL_AREA_STYLE_COLOUR($,#113);
#115=FILL_AREA_STYLE($,(#114));
#116=SURFACE_STYLE_FILL_AREA(#115);
#117=SURFACE_SIDE_STYLE('',(#116));
#118=SURFACE_STYLE_USAGE(.BOTH.,#117);
#119=PRESENTATION_STYLE_ASSIGNMENT((#118));
#120=STYLED_ITEM('',(#119),#112);
#121=ADVANCED_FACE('',(#200),#202,.T.);
#122=COLOUR_RGB($,1.,0.0588235294117647,0.0588235294117647);
#123=FILL_AREA_STYLE_COLOUR($,#122);
#124=FILL_AREA_STYLE($,(#123));
#125=SURFACE_STYLE_FILL_AREA(#124);
#126=SURFACE_SIDE_STYLE('',(#125));
#127=SURFACE_STYLE_USAGE(.BOTH.,#126);
#128=PRESENTATION_STYLE_ASSIGNMENT((#127));
#129=STYLED_ITEM('',(#128),#121);
#130=ADVANCED_FACE('',(#207,#209),#211,.T.);
#131=COLOUR_RGB($,1.,0.0588235294117647,0.0588235294117647);
#132=FILL_AREA_STYLE_COLOUR($,#131);
#133=FILL_AREA_STYLE($,(#132));
#134=SURFACE_STYLE_FILL_AREA(#133);
#135=SURFACE_SIDE_STYLE('',(#134));
#136=SURFACE_STYLE_USAGE(.BOTH.,#135);
#137=PRESENTATION_STYLE_ASSIGNMENT((#136));
#138=STYLED_ITEM('',(#137),#130);
#139=FACE_OUTER_BOUND('',#140,.T.);
#140=EDGE_LOOP('',(#216));
#141=FACE_OUTER_BOUND('',#142,.T.);
#142=EDGE_LOOP('',(#217));
#143=CYLINDRICAL_SURFACE('',#144,5.5);
#144=AXIS2_PLACEMENT_3D('',#145,#146,#147);
#145=CARTESIAN_POINT('',(0.,2.55,0.));
#146=DIRECTION('',(0.,-1.,0.));
#147=DIRECTION('',(0.,0.,-1.));
#148=FACE_BOUND('',#149,.T.);
#149=EDGE_LOOP('',(#218,#219));
#150=FACE_BOUND('',#151,.T.);
#151=EDGE_LOOP('',(#220));
#152=PLANE('',#153);
#153=AXIS2_PLACEMENT_3D('',#154,#155,#156);
#154=CARTESIAN_POINT('',(0.,1.65,0.));
#155=DIRECTION('',(0.,-1.,0.));
#156=DIRECTION('',(0.,0.,-1.));
#157=FACE_BOUND('',#158,.T.);
#158=EDGE_LOOP('',(#221));
#159=PLANE('',#160);
#160=AXIS2_PLACEMENT_3D('',#161,#162,#163);
#161=CARTESIAN_POINT('',(0.,3.55,0.));
#162=DIRECTION('',(-0.,1.,0.));
#163=DIRECTION('',(1.,0.,0.));
#164=FACE_BOUND('',#165,.T.);
#165=EDGE_LOOP('',(#222,#223));
#166=FACE_BOUND('',#167,.T.);
#167=EDGE_LOOP('',(#224,#225));
#168=TOROIDAL_SURFACE('',#169,6.65,0.1);
#169=AXIS2_PLACEMENT_3D('',#170,#171,#172);
#170=CARTESIAN_POINT('',(0.,1.55,0.));
#171=DIRECTION('',(0.,-1.,0.));
#172=DIRECTION('',(0.,0.,-1.));
#173=FACE_BOUND('',#174,.T.);
#174=EDGE_LOOP('',(#226,#227));
#175=FACE_BOUND('',#176,.T.);
#176=EDGE_LOOP('',(#228,#229));
#177=CYLINDRICAL_SURFACE('',#178,6.75);
#178=AXIS2_PLACEMENT_3D('',#179,#180,#181);
#179=CARTESIAN_POINT('',(0.,-0.7,0.));
#180=DIRECTION('',(0.,1.,0.));
#181=DIRECTION('',(0.,0.,1.));
#182=FACE_BOUND('',#183,.T.);
#183=EDGE_LOOP('',(#230,#231));
#184=FACE_BOUND('',#185,.T.);
#185=EDGE_LOOP('',(#232,#233));
#186=PLANE('',#187);
#187=AXIS2_PLACEMENT_3D('',#188,#189,#190);
#188=CARTESIAN_POINT('',(0.,-0.7,0.));
#189=DIRECTION('',(0.,-1.,0.));
#190=DIRECTION('',(0.,0.,-1.));
#191=FACE_BOUND('',#192,.T.);
#192=EDGE_LOOP('',(#234,#235));
#193=FACE_BOUND('',#194,.T.);
#194=EDGE_LOOP('',(#236,#237));
#195=CONICAL_SURFACE('',#196,4.24544826719043,0.26179938779915);
#196=AXIS2_PLACEMENT_3D('',#197,#198,#199);
#197=CARTESIAN_POINT('',(0.,0.249999999999999,0.));
#198=DIRECTION('',(0.,-1.,0.));
#199=DIRECTION('',(0.,0.,-1.));
#200=FACE_BOUND('',#201,.T.);
#201=EDGE_LOOP('',(#238,#239));
#202=PLANE('',#203);
#203=AXIS2_PLACEMENT_3D('',#204,#205,#206);
#204=CARTESIAN_POINT('',(0.,1.2,0.));
#205=DIRECTION('',(0.,-1.,0.));
#206=DIRECTION('',(0.,0.,-1.));
#207=FACE_OUTER_BOUND('',#208,.T.);
#208=EDGE_LOOP('',(#240));
#209=FACE_OUTER_BOUND('',#210,.T.);
#210=EDGE_LOOP('',(#241));
#211=TOROIDAL_SURFACE('',#212,5.1,0.4);
#212=AXIS2_PLACEMENT_3D('',#213,#214,#215);
#213=CARTESIAN_POINT('',(0.,3.15,0.));
#214=DIRECTION('',(-0.,1.,0.));
#215=DIRECTION('',(1.,0.,-3.28428005225881E-017));
#216=ORIENTED_EDGE('',*,*,#242,.F.);
#217=ORIENTED_EDGE('',*,*,#243,.F.);
#218=ORIENTED_EDGE('',*,*,#244,.T.);
#219=ORIENTED_EDGE('',*,*,#245,.T.);
#220=ORIENTED_EDGE('',*,*,#243,.T.);
#221=ORIENTED_EDGE('',*,*,#246,.T.);
#222=ORIENTED_EDGE('',*,*,#244,.F.);
#223=ORIENTED_EDGE('',*,*,#245,.F.);
#224=ORIENTED_EDGE('',*,*,#247,.F.);
#225=ORIENTED_EDGE('',*,*,#248,.F.);
#226=ORIENTED_EDGE('',*,*,#248,.T.);
#227=ORIENTED_EDGE('',*,*,#247,.T.);
#228=ORIENTED_EDGE('',*,*,#249,.F.);
#229=ORIENTED_EDGE('',*,*,#250,.F.);
#230=ORIENTED_EDGE('',*,*,#250,.T.);
#231=ORIENTED_EDGE('',*,*,#249,.T.);
#232=ORIENTED_EDGE('',*,*,#251,.F.);
#233=ORIENTED_EDGE('',*,*,#252,.F.);
#234=ORIENTED_EDGE('',*,*,#253,.F.);
#235=ORIENTED_EDGE('',*,*,#254,.F.);
#236=ORIENTED_EDGE('',*,*,#252,.T.);
#237=ORIENTED_EDGE('',*,*,#251,.T.);
#238=ORIENTED_EDGE('',*,*,#253,.T.);
#239=ORIENTED_EDGE('',*,*,#254,.T.);
#240=ORIENTED_EDGE('',*,*,#242,.T.);
#241=ORIENTED_EDGE('',*,*,#246,.F.);
#242=EDGE_CURVE('',#255,#255,#256,.T.);
#243=EDGE_CURVE('',#257,#257,#258,.T.);
#244=EDGE_CURVE('',#259,#260,#261,.T.);
#245=EDGE_CURVE('',#260,#259,#262,.T.);
#246=EDGE_CURVE('',#263,#263,#264,.T.);
#247=EDGE_CURVE('',#265,#266,#267,.T.);
#248=EDGE_CURVE('',#266,#265,#268,.T.);
#249=EDGE_CURVE('',#269,#270,#271,.T.);
#250=EDGE_CURVE('',#270,#269,#272,.T.);
#251=EDGE_CURVE('',#273,#274,#275,.T.);
#252=EDGE_CURVE('',#274,#273,#276,.T.);
#253=EDGE_CURVE('',#277,#278,#279,.T.);
#254=EDGE_CURVE('',#278,#277,#280,.T.);
#255=VERTEX_POINT('',#281);
#256=CIRCLE('',#282,5.5);
#257=VERTEX_POINT('',#286);
#258=CIRCLE('',#287,5.5);
#259=VERTEX_POINT('',#291);
#260=VERTEX_POINT('',#292);
#261=CIRCLE('',#293,6.65);
#262=CIRCLE('',#297,6.65);
#263=VERTEX_POINT('',#301);
#264=CIRCLE('',#302,5.1);
#265=VERTEX_POINT('',#306);
#266=VERTEX_POINT('',#307);
#267=CIRCLE('',#308,6.75);
#268=CIRCLE('',#312,6.75);
#269=VERTEX_POINT('',#316);
#270=VERTEX_POINT('',#317);
#271=CIRCLE('',#318,6.75);
#272=CIRCLE('',#322,6.75);
#273=VERTEX_POINT('',#326);
#274=VERTEX_POINT('',#327);
#275=CIRCLE('',#328,4.5);
#276=CIRCLE('',#332,4.5);
#277=VERTEX_POINT('',#336);
#278=VERTEX_POINT('',#337);
#279=CIRCLE('',#338,3.99089653438087);
#280=CIRCLE('',#342,3.99089653438087);
#281=CARTESIAN_POINT('',(5.5,3.15,4.14849103211166E-016));
#282=AXIS2_PLACEMENT_3D('',#283,#284,#285);
#283=CARTESIAN_POINT('',(0.,3.15,0.));
#284=DIRECTION('',(-0.,1.,-0.));
#285=DIRECTION('',(1.,0.,-6.12323399573677E-017));
#286=CARTESIAN_POINT('',(5.5,1.65,1.12259289921841E-016));
#287=AXIS2_PLACEMENT_3D('',#288,#289,#290);
#288=CARTESIAN_POINT('',(0.,1.65,0.));
#289=DIRECTION('',(0.,-1.,0.));
#290=DIRECTION('',(1.22464679914735E-016,0.,1.));
#291=CARTESIAN_POINT('',(0.,1.65,-6.65));
#292=CARTESIAN_POINT('',(-8.1439012143299E-016,1.65,6.65));
#293=AXIS2_PLACEMENT_3D('',#294,#295,#296);
#294=CARTESIAN_POINT('',(0.,1.65,0.));
#295=DIRECTION('',(0.,1.,0.));
#296=DIRECTION('',(0.,0.,-1.));
#297=AXIS2_PLACEMENT_3D('',#298,#299,#300);
#298=CARTESIAN_POINT('',(0.,1.65,0.));
#299=DIRECTION('',(-0.,1.,0.));
#300=DIRECTION('',(-1.22464679914735E-016,0.,1.));
#301=CARTESIAN_POINT('',(5.1,3.55,5.1290434578835E-016));
#302=AXIS2_PLACEMENT_3D('',#303,#304,#305);
#303=CARTESIAN_POINT('',(0.,3.55,0.));
#304=DIRECTION('',(-0.,1.,0.));
#305=DIRECTION('',(1.,0.,0.));
#306=CARTESIAN_POINT('',(8.26636589424463E-016,1.55,-6.75));
#307=CARTESIAN_POINT('',(-8.26636589424463E-016,1.55,6.75));
#308=AXIS2_PLACEMENT_3D('',#309,#310,#311);
#309=CARTESIAN_POINT('',(0.,1.55,0.));
#310=DIRECTION('',(-0.,-1.,-0.));
#311=DIRECTION('',(1.22464679914735E-016,0.,-1.));
#312=AXIS2_PLACEMENT_3D('',#313,#314,#315);
#313=CARTESIAN_POINT('',(0.,1.55,0.));
#314=DIRECTION('',(-0.,-1.,-0.));
#315=DIRECTION('',(0.,0.,1.));
#316=CARTESIAN_POINT('',(-8.26636589424463E-016,-0.7,-6.75));
#317=CARTESIAN_POINT('',(0.,-0.7,6.75));
#318=AXIS2_PLACEMENT_3D('',#319,#320,#321);
#319=CARTESIAN_POINT('',(0.,-0.7,0.));
#320=DIRECTION('',(0.,-1.,0.));
#321=DIRECTION('',(0.,0.,-1.));
#322=AXIS2_PLACEMENT_3D('',#323,#324,#325);
#323=CARTESIAN_POINT('',(0.,-0.7,0.));
#324=DIRECTION('',(0.,-1.,0.));
#325=DIRECTION('',(1.22464679914735E-016,0.,1.));
#326=CARTESIAN_POINT('',(0.,-0.7,-4.5));
#327=CARTESIAN_POINT('',(-5.51091059616309E-016,-0.7,4.5));
#328=AXIS2_PLACEMENT_3D('',#329,#330,#331);
#329=CARTESIAN_POINT('',(0.,-0.7,0.));
#330=DIRECTION('',(0.,-1.,0.));
#331=DIRECTION('',(0.,0.,-1.));
#332=AXIS2_PLACEMENT_3D('',#333,#334,#335);
#333=CARTESIAN_POINT('',(0.,-0.7,0.));
#334=DIRECTION('',(0.,-1.,0.));
#335=DIRECTION('',(1.22464679914735E-016,0.,1.));
#336=CARTESIAN_POINT('',(0.,1.2,-3.99089653438087));
#337=CARTESIAN_POINT('',(-4.88743866655779E-016,1.2,3.99089653438087));
#338=AXIS2_PLACEMENT_3D('',#339,#340,#341);
#339=CARTESIAN_POINT('',(0.,1.2,0.));
#340=DIRECTION('',(0.,-1.,0.));
#341=DIRECTION('',(0.,0.,-1.));
#342=AXIS2_PLACEMENT_3D('',#343,#344,#345);
#343=CARTESIAN_POINT('',(0.,1.2,0.));
#344=DIRECTION('',(0.,-1.,0.));
#345=DIRECTION('',(1.22464679914735E-016,0.,1.));
ENDSEC;
END-ISO-10303-21;
