ISO-10303-21;
HEADER;
FILE_DESCRIPTION(('STEP AP214'),
    '1');
FILE_NAME('çàäíÿÿ êðûøêà',
    '',
    ('UNSPECIFIED'),
    ('UNSPECIFIED'),
    'ASCON STEP Converter 1.3',
    'ASCON Math Kernel',
    '');
FILE_SCHEMA(('AUTOMOTIVE_DESIGN { 1 0 10303 214 3 1 1}'));
ENDSEC;

DATA;
#1=SHAPE_REPRESENTATION('NONE',(#2),#6);
#2=AXIS2_PLACEMENT_3D('',#3,#4,#5);
#3=CARTESIAN_POINT('',(0.,0.,0.));
#4=DIRECTION('',(0.,0.,1.));
#5=DIRECTION('',(1.,0.,0.));
#6=(GEOMETRIC_REPRESENTATION_CONTEXT(3)GLOBAL_UNCERTAINTY_ASSIGNED_CONTEXT((#8))
GLOBAL_UNIT_ASSIGNED_CONTEXT((#7,#9,#10))REPRESENTATION_CONTEXT('NONE','NONE'));
#7=(LENGTH_UNIT()NAMED_UNIT(*)SI_UNIT(.MILLI.,.METRE.));
#8=UNCERTAINTY_MEASURE_WITH_UNIT(LENGTH_MEASURE(1.E-005),#7,'NONE','NONE');
#9=(NAMED_UNIT(*)PLANE_ANGLE_UNIT()SI_UNIT($,.RADIAN.));
#10=(NAMED_UNIT(*)SI_UNIT($,.STERADIAN.)SOLID_ANGLE_UNIT());
#11=SHAPE_DEFINITION_REPRESENTATION(#12,#1);
#12=PRODUCT_DEFINITION_SHAPE('NONE','NONE',#13);
#13=PRODUCT_DEFINITION('','UNSPECIFIED',#14,#22);
#14=PRODUCT_DEFINITION_FORMATION_WITH_SPECIFIED_SOURCE('ANY','UNSPECIFIED',#15,.NOT_KNOWN.);
#15=PRODUCT('\X\CA\X\F0\X\FB\X\F8\X\EA\X\E0','_X_CA_X_F0_X_FB_X_F8_X_EA_X_E0','NONE',
(#25));
#16=PERSON('UNSPECIFIED','Àëåêñåé','UNSPECIFIED',('UNSPECIFIED'),('UNSPECIFIED'),
('UNSPECIFIED'));
#17=ORGANIZATION('UNSPECIFIED','UNSPECIFIED','UNSPECIFIED');
#18=PERSON_AND_ORGANIZATION(#16,#17);
#19=PERSON_AND_ORGANIZATION_ROLE('design_owner');
#20=CC_DESIGN_PERSON_AND_ORGANIZATION_ASSIGNMENT(#18,#19,(#15));
#21=PRODUCT_RELATED_PRODUCT_CATEGORY('detail','',(#15));
#22=DESIGN_CONTEXT('detailed design',#23,'design');
#23=APPLICATION_CONTEXT('configuration controlled 3d designs of mechanical parts and assemblies');
#24=APPLICATION_PROTOCOL_DEFINITION('international standard','automotive_design',
2011,#23);
#25=MECHANICAL_CONTEXT('NONE',#23,'mechanical');
#26=CC_DESIGN_DATE_AND_TIME_ASSIGNMENT(#27,#31,(#13));
#27=DATE_AND_TIME(#28,#29);
#28=CALENDAR_DATE(0,1,1);
#29=LOCAL_TIME(0,0,0.,#30);
#30=COORDINATED_UNIVERSAL_TIME_OFFSET(0,0,.AHEAD.);
#31=DATE_TIME_ROLE('creation_date');
#32=CC_DESIGN_APPROVAL(#33,(#13));
#33=APPROVAL(#34,'UNSPECIFIED');
#34=APPROVAL_STATUS('not_yet_approved');
#35=APPROVAL_DATE_TIME(#36,#33);
#36=DATE_AND_TIME(#37,#38);
#37=CALENDAR_DATE(0,1,1);
#38=LOCAL_TIME(0,0,0.,#39);
#39=COORDINATED_UNIVERSAL_TIME_OFFSET(0,0,.AHEAD.);
#40=DERIVED_UNIT((#44,#41));
#41=DERIVED_UNIT_ELEMENT(#42,-1.);
#42=VOLUME_UNIT(#43);
#43=DIMENSIONAL_EXPONENTS(3.,0.,0.,0.,0.,0.,0.);
#44=(NAMED_UNIT($)MASS_UNIT()SI_UNIT($,.GRAM.));
#45=MANIFOLD_SOLID_BREP('',#46);
#46=CLOSED_SHELL('',(#58,#67,#76,#85,#94,#103,#112,#121,#130,#139));
#47=COLOUR_RGB($,0.792156862745098,0.819607843137255,0.933333333333333);
#48=FILL_AREA_STYLE_COLOUR($,#47);
#49=FILL_AREA_STYLE($,(#48));
#50=SURFACE_STYLE_FILL_AREA(#49);
#51=SURFACE_SIDE_STYLE('',(#50));
#52=SURFACE_STYLE_USAGE(.BOTH.,#51);
#53=PRESENTATION_STYLE_ASSIGNMENT((#52));
#54=MECHANICAL_DESIGN_GEOMETRIC_PRESENTATION_REPRESENTATION('NONE',(#55,#66,#75,
#84,#93,#102,#111,#120,#129,#138,#147),#6);
#55=STYLED_ITEM('',(#53),#45);
#56=ADVANCED_BREP_SHAPE_REPRESENTATION('NONE',(#45),#6);
#57=SHAPE_REPRESENTATION_RELATIONSHIP('','',#1,#56);
#58=ADVANCED_FACE('',(#148),#150,.F.);
#59=COLOUR_RGB($,0.792156862745098,0.819607843137255,0.933333333333333);
#60=FILL_AREA_STYLE_COLOUR($,#59);
#61=FILL_AREA_STYLE($,(#60));
#62=SURFACE_STYLE_FILL_AREA(#61);
#63=SURFACE_SIDE_STYLE('',(#62));
#64=SURFACE_STYLE_USAGE(.BOTH.,#63);
#65=PRESENTATION_STYLE_ASSIGNMENT((#64));
#66=STYLED_ITEM('',(#65),#58);
#67=ADVANCED_FACE('',(#155),#157,.F.);
#68=COLOUR_RGB($,0.792156862745098,0.819607843137255,0.933333333333333);
#69=FILL_AREA_STYLE_COLOUR($,#68);
#70=FILL_AREA_STYLE($,(#69));
#71=SURFACE_STYLE_FILL_AREA(#70);
#72=SURFACE_SIDE_STYLE('',(#71));
#73=SURFACE_STYLE_USAGE(.BOTH.,#72);
#74=PRESENTATION_STYLE_ASSIGNMENT((#73));
#75=STYLED_ITEM('',(#74),#67);
#76=ADVANCED_FACE('',(#162),#164,.F.);
#77=COLOUR_RGB($,0.792156862745098,0.819607843137255,0.933333333333333);
#78=FILL_AREA_STYLE_COLOUR($,#77);
#79=FILL_AREA_STYLE($,(#78));
#80=SURFACE_STYLE_FILL_AREA(#79);
#81=SURFACE_SIDE_STYLE('',(#80));
#82=SURFACE_STYLE_USAGE(.BOTH.,#81);
#83=PRESENTATION_STYLE_ASSIGNMENT((#82));
#84=STYLED_ITEM('',(#83),#76);
#85=ADVANCED_FACE('',(#169),#171,.F.);
#86=COLOUR_RGB($,0.792156862745098,0.819607843137255,0.933333333333333);
#87=FILL_AREA_STYLE_COLOUR($,#86);
#88=FILL_AREA_STYLE($,(#87));
#89=SURFACE_STYLE_FILL_AREA(#88);
#90=SURFACE_SIDE_STYLE('',(#89));
#91=SURFACE_STYLE_USAGE(.BOTH.,#90);
#92=PRESENTATION_STYLE_ASSIGNMENT((#91));
#93=STYLED_ITEM('',(#92),#85);
#94=ADVANCED_FACE('',(#176),#178,.T.);
#95=COLOUR_RGB($,0.792156862745098,0.819607843137255,0.933333333333333);
#96=FILL_AREA_STYLE_COLOUR($,#95);
#97=FILL_AREA_STYLE($,(#96));
#98=SURFACE_STYLE_FILL_AREA(#97);
#99=SURFACE_SIDE_STYLE('',(#98));
#100=SURFACE_STYLE_USAGE(.BOTH.,#99);
#101=PRESENTATION_STYLE_ASSIGNMENT((#100));
#102=STYLED_ITEM('',(#101),#94);
#103=ADVANCED_FACE('',(#183),#185,.F.);
#104=COLOUR_RGB($,0.792156862745098,0.819607843137255,0.933333333333333);
#105=FILL_AREA_STYLE_COLOUR($,#104);
#106=FILL_AREA_STYLE($,(#105));
#107=SURFACE_STYLE_FILL_AREA(#106);
#108=SURFACE_SIDE_STYLE('',(#107));
#109=SURFACE_STYLE_USAGE(.BOTH.,#108);
#110=PRESENTATION_STYLE_ASSIGNMENT((#109));
#111=STYLED_ITEM('',(#110),#103);
#112=ADVANCED_FACE('',(#190),#192,.T.);
#113=COLOUR_RGB($,0.792156862745098,0.819607843137255,0.933333333333333);
#114=FILL_AREA_STYLE_COLOUR($,#113);
#115=FILL_AREA_STYLE($,(#114));
#116=SURFACE_STYLE_FILL_AREA(#115);
#117=SURFACE_SIDE_STYLE('',(#116));
#118=SURFACE_STYLE_USAGE(.BOTH.,#117);
#119=PRESENTATION_STYLE_ASSIGNMENT((#118));
#120=STYLED_ITEM('',(#119),#112);
#121=ADVANCED_FACE('',(#197),#199,.T.);
#122=COLOUR_RGB($,0.792156862745098,0.819607843137255,0.933333333333333);
#123=FILL_AREA_STYLE_COLOUR($,#122);
#124=FILL_AREA_STYLE($,(#123));
#125=SURFACE_STYLE_FILL_AREA(#124);
#126=SURFACE_SIDE_STYLE('',(#125));
#127=SURFACE_STYLE_USAGE(.BOTH.,#126);
#128=PRESENTATION_STYLE_ASSIGNMENT((#127));
#129=STYLED_ITEM('',(#128),#121);
#130=ADVANCED_FACE('',(#204),#206,.T.);
#131=COLOUR_RGB($,0.792156862745098,0.819607843137255,0.933333333333333);
#132=FILL_AREA_STYLE_COLOUR($,#131);
#133=FILL_AREA_STYLE($,(#132));
#134=SURFACE_STYLE_FILL_AREA(#133);
#135=SURFACE_SIDE_STYLE('',(#134));
#136=SURFACE_STYLE_USAGE(.BOTH.,#135);
#137=PRESENTATION_STYLE_ASSIGNMENT((#136));
#138=STYLED_ITEM('',(#137),#130);
#139=ADVANCED_FACE('',(#211),#213,.T.);
#140=COLOUR_RGB($,0.792156862745098,0.819607843137255,0.933333333333333);
#141=FILL_AREA_STYLE_COLOUR($,#140);
#142=FILL_AREA_STYLE($,(#141));
#143=SURFACE_STYLE_FILL_AREA(#142);
#144=SURFACE_SIDE_STYLE('',(#143));
#145=SURFACE_STYLE_USAGE(.BOTH.,#144);
#146=PRESENTATION_STYLE_ASSIGNMENT((#145));
#147=STYLED_ITEM('',(#146),#139);
#148=FACE_BOUND('',#149,.T.);
#149=EDGE_LOOP('',(#218,#219,#220,#221));
#150=PLANE('',#151);
#151=AXIS2_PLACEMENT_3D('',#152,#153,#154);
#152=CARTESIAN_POINT('',(-22.3941605839416,1.,-26.7591240875912));
#153=DIRECTION('',(1.,0.,-1.25401697058564E-016));
#154=DIRECTION('',(-1.25401697058564E-016,0.,-1.));
#155=FACE_BOUND('',#156,.T.);
#156=EDGE_LOOP('',(#222,#223,#224,#225));
#157=PLANE('',#158);
#158=AXIS2_PLACEMENT_3D('',#159,#160,#161);
#159=CARTESIAN_POINT('',(-22.3941605839416,1.,56.2408759124087));
#160=DIRECTION('',(0.,0.,-1.));
#161=DIRECTION('',(-1.,0.,0.));
#162=FACE_BOUND('',#163,.T.);
#163=EDGE_LOOP('',(#226,#227,#228,#229));
#164=PLANE('',#165);
#165=AXIS2_PLACEMENT_3D('',#166,#167,#168);
#166=CARTESIAN_POINT('',(29.2058394160584,1.,-26.7591240875912));
#167=DIRECTION('',(-1.,0.,1.25401697058564E-016));
#168=DIRECTION('',(1.25401697058564E-016,0.,1.));
#169=FACE_BOUND('',#170,.T.);
#170=EDGE_LOOP('',(#230,#231,#232,#233));
#171=PLANE('',#172);
#172=AXIS2_PLACEMENT_3D('',#173,#174,#175);
#173=CARTESIAN_POINT('',(-22.3941605839416,1.,-26.7591240875912));
#174=DIRECTION('',(0.,0.,1.));
#175=DIRECTION('',(1.,0.,0.));
#176=FACE_BOUND('',#177,.T.);
#177=EDGE_LOOP('',(#234,#235,#236,#237,#238,#239,#240,#241));
#178=PLANE('',#179);
#179=AXIS2_PLACEMENT_3D('',#180,#181,#182);
#180=CARTESIAN_POINT('',(0.,1.,0.));
#181=DIRECTION('',(0.,1.,0.));
#182=DIRECTION('',(0.,0.,1.));
#183=FACE_BOUND('',#184,.T.);
#184=EDGE_LOOP('',(#242,#243,#244,#245,#246,#247,#248,#249));
#185=PLANE('',#186);
#186=AXIS2_PLACEMENT_3D('',#187,#188,#189);
#187=CARTESIAN_POINT('',(0.,0.,0.));
#188=DIRECTION('',(0.,1.,0.));
#189=DIRECTION('',(0.,0.,1.));
#190=FACE_BOUND('',#191,.T.);
#191=EDGE_LOOP('',(#250,#251,#252,#253));
#192=CYLINDRICAL_SURFACE('',#193,1.5);
#193=AXIS2_PLACEMENT_3D('',#194,#195,#196);
#194=CARTESIAN_POINT('',(27.7058394160584,1.,-25.2591240875912));
#195=DIRECTION('',(0.,-1.,0.));
#196=DIRECTION('',(0.,0.,-1.));
#197=FACE_BOUND('',#198,.T.);
#198=EDGE_LOOP('',(#254,#255,#256,#257));
#199=CYLINDRICAL_SURFACE('',#200,1.5);
#200=AXIS2_PLACEMENT_3D('',#201,#202,#203);
#201=CARTESIAN_POINT('',(-20.8941605839416,1.,-25.2591240875912));
#202=DIRECTION('',(0.,-1.,0.));
#203=DIRECTION('',(0.,0.,-1.));
#204=FACE_BOUND('',#205,.T.);
#205=EDGE_LOOP('',(#258,#259,#260,#261));
#206=CYLINDRICAL_SURFACE('',#207,1.5);
#207=AXIS2_PLACEMENT_3D('',#208,#209,#210);
#208=CARTESIAN_POINT('',(-20.8941605839416,1.,54.7408759124087));
#209=DIRECTION('',(0.,-1.,0.));
#210=DIRECTION('',(0.,0.,-1.));
#211=FACE_BOUND('',#212,.T.);
#212=EDGE_LOOP('',(#262,#263,#264,#265));
#213=CYLINDRICAL_SURFACE('',#214,1.5);
#214=AXIS2_PLACEMENT_3D('',#215,#216,#217);
#215=CARTESIAN_POINT('',(27.7058394160584,1.,54.7408759124087));
#216=DIRECTION('',(0.,-1.,0.));
#217=DIRECTION('',(0.,0.,-1.));
#218=ORIENTED_EDGE('',*,*,#266,.F.);
#219=ORIENTED_EDGE('',*,*,#267,.T.);
#220=ORIENTED_EDGE('',*,*,#268,.T.);
#221=ORIENTED_EDGE('',*,*,#269,.T.);
#222=ORIENTED_EDGE('',*,*,#270,.F.);
#223=ORIENTED_EDGE('',*,*,#271,.T.);
#224=ORIENTED_EDGE('',*,*,#272,.T.);
#225=ORIENTED_EDGE('',*,*,#273,.T.);
#226=ORIENTED_EDGE('',*,*,#274,.T.);
#227=ORIENTED_EDGE('',*,*,#275,.T.);
#228=ORIENTED_EDGE('',*,*,#276,.F.);
#229=ORIENTED_EDGE('',*,*,#277,.T.);
#230=ORIENTED_EDGE('',*,*,#278,.F.);
#231=ORIENTED_EDGE('',*,*,#279,.T.);
#232=ORIENTED_EDGE('',*,*,#280,.T.);
#233=ORIENTED_EDGE('',*,*,#281,.T.);
#234=ORIENTED_EDGE('',*,*,#276,.T.);
#235=ORIENTED_EDGE('',*,*,#282,.T.);
#236=ORIENTED_EDGE('',*,*,#278,.T.);
#237=ORIENTED_EDGE('',*,*,#283,.T.);
#238=ORIENTED_EDGE('',*,*,#266,.T.);
#239=ORIENTED_EDGE('',*,*,#284,.T.);
#240=ORIENTED_EDGE('',*,*,#270,.T.);
#241=ORIENTED_EDGE('',*,*,#285,.T.);
#242=ORIENTED_EDGE('',*,*,#280,.F.);
#243=ORIENTED_EDGE('',*,*,#286,.T.);
#244=ORIENTED_EDGE('',*,*,#274,.F.);
#245=ORIENTED_EDGE('',*,*,#287,.T.);
#246=ORIENTED_EDGE('',*,*,#272,.F.);
#247=ORIENTED_EDGE('',*,*,#288,.T.);
#248=ORIENTED_EDGE('',*,*,#268,.F.);
#249=ORIENTED_EDGE('',*,*,#289,.T.);
#250=ORIENTED_EDGE('',*,*,#282,.F.);
#251=ORIENTED_EDGE('',*,*,#275,.F.);
#252=ORIENTED_EDGE('',*,*,#286,.F.);
#253=ORIENTED_EDGE('',*,*,#279,.F.);
#254=ORIENTED_EDGE('',*,*,#283,.F.);
#255=ORIENTED_EDGE('',*,*,#281,.F.);
#256=ORIENTED_EDGE('',*,*,#289,.F.);
#257=ORIENTED_EDGE('',*,*,#267,.F.);
#258=ORIENTED_EDGE('',*,*,#284,.F.);
#259=ORIENTED_EDGE('',*,*,#269,.F.);
#260=ORIENTED_EDGE('',*,*,#288,.F.);
#261=ORIENTED_EDGE('',*,*,#271,.F.);
#262=ORIENTED_EDGE('',*,*,#285,.F.);
#263=ORIENTED_EDGE('',*,*,#273,.F.);
#264=ORIENTED_EDGE('',*,*,#287,.F.);
#265=ORIENTED_EDGE('',*,*,#277,.F.);
#266=EDGE_CURVE('',#290,#291,#292,.T.);
#267=EDGE_CURVE('',#290,#293,#294,.T.);
#268=EDGE_CURVE('',#293,#295,#296,.T.);
#269=EDGE_CURVE('',#295,#291,#297,.T.);
#270=EDGE_CURVE('',#298,#299,#300,.T.);
#271=EDGE_CURVE('',#298,#301,#302,.T.);
#272=EDGE_CURVE('',#301,#303,#304,.T.);
#273=EDGE_CURVE('',#303,#299,#305,.T.);
#274=EDGE_CURVE('',#306,#307,#308,.T.);
#275=EDGE_CURVE('',#307,#309,#310,.T.);
#276=EDGE_CURVE('',#311,#309,#312,.T.);
#277=EDGE_CURVE('',#311,#306,#313,.T.);
#278=EDGE_CURVE('',#314,#315,#316,.T.);
#279=EDGE_CURVE('',#314,#317,#318,.T.);
#280=EDGE_CURVE('',#317,#319,#320,.T.);
#281=EDGE_CURVE('',#319,#315,#321,.T.);
#282=EDGE_CURVE('',#309,#314,#322,.T.);
#283=EDGE_CURVE('',#315,#290,#323,.T.);
#284=EDGE_CURVE('',#291,#298,#324,.T.);
#285=EDGE_CURVE('',#299,#311,#325,.T.);
#286=EDGE_CURVE('',#317,#307,#326,.T.);
#287=EDGE_CURVE('',#306,#303,#327,.T.);
#288=EDGE_CURVE('',#301,#295,#328,.T.);
#289=EDGE_CURVE('',#293,#319,#329,.T.);
#290=VERTEX_POINT('',#330);
#291=VERTEX_POINT('',#331);
#292=LINE('',#332,#333);
#293=VERTEX_POINT('',#335);
#294=LINE('',#336,#337);
#295=VERTEX_POINT('',#339);
#296=LINE('',#340,#341);
#297=LINE('',#343,#344);
#298=VERTEX_POINT('',#346);
#299=VERTEX_POINT('',#347);
#300=LINE('',#348,#349);
#301=VERTEX_POINT('',#351);
#302=LINE('',#352,#353);
#303=VERTEX_POINT('',#355);
#304=LINE('',#356,#357);
#305=LINE('',#359,#360);
#306=VERTEX_POINT('',#362);
#307=VERTEX_POINT('',#363);
#308=LINE('',#364,#365);
#309=VERTEX_POINT('',#367);
#310=LINE('',#368,#369);
#311=VERTEX_POINT('',#371);
#312=LINE('',#372,#373);
#313=LINE('',#375,#376);
#314=VERTEX_POINT('',#378);
#315=VERTEX_POINT('',#379);
#316=LINE('',#380,#381);
#317=VERTEX_POINT('',#383);
#318=LINE('',#384,#385);
#319=VERTEX_POINT('',#387);
#320=LINE('',#388,#389);
#321=LINE('',#391,#392);
#322=CIRCLE('',#394,1.5);
#323=CIRCLE('',#398,1.5);
#324=CIRCLE('',#402,1.5);
#325=CIRCLE('',#406,1.5);
#326=CIRCLE('',#410,1.5);
#327=CIRCLE('',#414,1.5);
#328=CIRCLE('',#418,1.5);
#329=CIRCLE('',#422,1.5);
#330=CARTESIAN_POINT('',(-22.3941605839416,1.,-25.2591240875912));
#331=CARTESIAN_POINT('',(-22.3941605839416,1.,54.7408759124087));
#332=CARTESIAN_POINT('',(-22.3941605839416,1.,-25.2591240875912));
#333=VECTOR('',#334,1.);
#334=DIRECTION('',(1.33226762955019E-016,0.,1.));
#335=CARTESIAN_POINT('',(-22.3941605839416,0.,-25.2591240875912));
#336=CARTESIAN_POINT('',(-22.3941605839416,1.,-25.2591240875912));
#337=VECTOR('',#338,1.);
#338=DIRECTION('',(0.,-1.,0.));
#339=CARTESIAN_POINT('',(-22.3941605839416,0.,54.7408759124087));
#340=CARTESIAN_POINT('',(-22.3941605839416,0.,-25.2591240875912));
#341=VECTOR('',#342,1.);
#342=DIRECTION('',(1.33226762955019E-016,0.,1.));
#343=CARTESIAN_POINT('',(-22.3941605839416,-2.22044604925031E-016,54.7408759124087));
#344=VECTOR('',#345,1.);
#345=DIRECTION('',(0.,1.,1.4210854715202E-014));
#346=CARTESIAN_POINT('',(-20.8941605839416,1.,56.2408759124087));
#347=CARTESIAN_POINT('',(27.7058394160584,1.,56.2408759124087));
#348=CARTESIAN_POINT('',(-20.8941605839416,1.,56.2408759124087));
#349=VECTOR('',#350,1.);
#350=DIRECTION('',(1.,0.,0.));
#351=CARTESIAN_POINT('',(-20.8941605839416,0.,56.2408759124087));
#352=CARTESIAN_POINT('',(-20.8941605839416,1.,56.2408759124087));
#353=VECTOR('',#354,1.);
#354=DIRECTION('',(0.,-1.,0.));
#355=CARTESIAN_POINT('',(27.7058394160584,0.,56.2408759124087));
#356=CARTESIAN_POINT('',(-20.8941605839416,0.,56.2408759124087));
#357=VECTOR('',#358,1.);
#358=DIRECTION('',(1.,0.,0.));
#359=CARTESIAN_POINT('',(27.7058394160584,-2.22044604925031E-016,56.2408759124087));
#360=VECTOR('',#361,1.);
#361=DIRECTION('',(0.,1.,0.));
#362=CARTESIAN_POINT('',(29.2058394160584,0.,54.7408759124087));
#363=CARTESIAN_POINT('',(29.2058394160584,0.,-25.2591240875912));
#364=CARTESIAN_POINT('',(29.2058394160584,0.,54.7408759124087));
#365=VECTOR('',#366,1.);
#366=DIRECTION('',(-1.33226762955019E-016,0.,-1.));
#367=CARTESIAN_POINT('',(29.2058394160584,1.,-25.2591240875912));
#368=CARTESIAN_POINT('',(29.2058394160584,-2.22044604925031E-016,-25.2591240875912));
#369=VECTOR('',#370,1.);
#370=DIRECTION('',(0.,1.,0.));
#371=CARTESIAN_POINT('',(29.2058394160584,1.,54.7408759124087));
#372=CARTESIAN_POINT('',(29.2058394160584,1.,54.7408759124087));
#373=VECTOR('',#374,1.);
#374=DIRECTION('',(-8.88178419700126E-017,0.,-1.));
#375=CARTESIAN_POINT('',(29.2058394160584,1.,54.7408759124087));
#376=VECTOR('',#377,1.);
#377=DIRECTION('',(0.,-1.,0.));
#378=CARTESIAN_POINT('',(27.7058394160584,1.,-26.7591240875912));
#379=CARTESIAN_POINT('',(-20.8941605839416,1.,-26.7591240875912));
#380=CARTESIAN_POINT('',(27.7058394160584,1.,-26.7591240875912));
#381=VECTOR('',#382,1.);
#382=DIRECTION('',(-1.,0.,0.));
#383=CARTESIAN_POINT('',(27.7058394160584,0.,-26.7591240875912));
#384=CARTESIAN_POINT('',(27.7058394160584,1.,-26.7591240875912));
#385=VECTOR('',#386,1.);
#386=DIRECTION('',(0.,-1.,0.));
#387=CARTESIAN_POINT('',(-20.8941605839416,0.,-26.7591240875912));
#388=CARTESIAN_POINT('',(27.7058394160584,0.,-26.7591240875912));
#389=VECTOR('',#390,1.);
#390=DIRECTION('',(-1.,0.,0.));
#391=CARTESIAN_POINT('',(-20.8941605839416,-2.22044604925031E-016,-26.7591240875912));
#392=VECTOR('',#393,1.);
#393=DIRECTION('',(-3.5527136788005E-015,1.,0.));
#394=AXIS2_PLACEMENT_3D('',#395,#396,#397);
#395=CARTESIAN_POINT('',(27.7058394160584,1.,-25.2591240875912));
#396=DIRECTION('',(-0.,1.,0.));
#397=DIRECTION('',(1.,0.,0.));
#398=AXIS2_PLACEMENT_3D('',#399,#400,#401);
#399=CARTESIAN_POINT('',(-20.8941605839416,1.,-25.2591240875912));
#400=DIRECTION('',(-0.,1.,0.));
#401=DIRECTION('',(0.,0.,-1.));
#402=AXIS2_PLACEMENT_3D('',#403,#404,#405);
#403=CARTESIAN_POINT('',(-20.8941605839416,1.,54.7408759124087));
#404=DIRECTION('',(0.,1.,-0.));
#405=DIRECTION('',(-1.,0.,0.));
#406=AXIS2_PLACEMENT_3D('',#407,#408,#409);
#407=CARTESIAN_POINT('',(27.7058394160584,1.,54.7408759124087));
#408=DIRECTION('',(0.,1.,0.));
#409=DIRECTION('',(0.,0.,1.));
#410=AXIS2_PLACEMENT_3D('',#411,#412,#413);
#411=CARTESIAN_POINT('',(27.7058394160584,0.,-25.2591240875912));
#412=DIRECTION('',(0.,-1.,0.));
#413=DIRECTION('',(0.,0.,-1.));
#414=AXIS2_PLACEMENT_3D('',#415,#416,#417);
#415=CARTESIAN_POINT('',(27.7058394160584,0.,54.7408759124087));
#416=DIRECTION('',(0.,-1.,0.));
#417=DIRECTION('',(1.,0.,0.));
#418=AXIS2_PLACEMENT_3D('',#419,#420,#421);
#419=CARTESIAN_POINT('',(-20.8941605839416,0.,54.7408759124087));
#420=DIRECTION('',(0.,-1.,0.));
#421=DIRECTION('',(0.,0.,1.));
#422=AXIS2_PLACEMENT_3D('',#423,#424,#425);
#423=CARTESIAN_POINT('',(-20.8941605839416,0.,-25.2591240875912));
#424=DIRECTION('',(0.,-1.,0.));
#425=DIRECTION('',(-1.,0.,0.));
ENDSEC;
END-ISO-10303-21;
