ISO-10303-21;
HEADER;
/* Generated by software containing ST-Developer
 * from STEP Tools, Inc. (www.steptools.com) 
 */

FILE_DESCRIPTION(
/* description */ (''),
/* implementation_level */ '2;1');

FILE_NAME(
/* name */ 
'D:\\! work edward\\work NL_T\\2018.01.12 \X2\04230421041F\X0\ \X2\042D
043D043504400433043E043C04300448\X0\\\_AIS \X2\04230421041F\X0\ \X2\042D
043D043504400433043E043C04300448\X0\\\_\X2\041D041B0418\X0\18-2.80.30.
00.00 \X2\04210411\X0\. \X2\041E0441043D043E04320430043D04380435\X0\ \X2\0441
0442043E0439043A0438\X0\ v2\\_\X2\04410442043E043B\X0\ \X2\043F043E0432
043E0440043E0442043D044B0439\X0\\\pdf stp \X2\04410442043E043B0438043A
\X0\ \X2\043F043E0432043E0440043E0442043D044B0439\X0\\\\X2\041D041B0418
\X0\18-2.80.30.20.01. \X2\04120438043D0442\X0\ \X2\0442043E0447043D043E
0433043E\X0\ \X2\043F043E0432043E0440043E04420430\X0\ \X2\041C\X0\10\X2\0445
\X0\1.stp',
/* time_stamp */ '2018-07-21T17:14:47+04:00',
/* author */ ('Edward'),
/* organization */ (''),
/* preprocessor_version */ 'ST-DEVELOPER v15.6',
/* originating_system */ 'Autodesk Inventor 2015',
/* authorisation */ '');

FILE_SCHEMA (('AUTOMOTIVE_DESIGN { 1 0 10303 214 3 1 1 }'));
ENDSEC;

DATA;
#10=MECHANICAL_DESIGN_GEOMETRIC_PRESENTATION_REPRESENTATION('',(#13),#430);
#11=SHAPE_REPRESENTATION_RELATIONSHIP('SRR','None',#439,#12);
#12=ADVANCED_BREP_SHAPE_REPRESENTATION($,(#14),#429);
#13=STYLED_ITEM('',(#448),#14);
#14=MANIFOLD_SOLID_BREP('\X2\04220432043504400434043E0435\X0\ \X2\0442
0435043B043E\X0\1',#237);
#15=TOROIDAL_SURFACE('',#260,4.25,0.250000000000014);
#16=TOROIDAL_SURFACE('',#268,3.25,0.249999999999999);
#17=B_SPLINE_CURVE_WITH_KNOTS('',3,(#378,#379,#380,#381,#382,#383,#384,
#385,#386,#387),.UNSPECIFIED.,.F.,.F.,(4,2,2,2,4),(-0.151940029365148,-0.113963832804943,
-0.0759876362447371,-0.0379938181223686,0.),.UNSPECIFIED.);
#18=B_SPLINE_CURVE_WITH_KNOTS('',3,(#388,#389,#390,#391,#392,#393,#394,
#395,#396,#397),.UNSPECIFIED.,.F.,.F.,(4,2,2,2,4),(-0.303880058730296,-0.265886240607927,
-0.227892422485559,-0.189916225925354,-0.151940029365148),.UNSPECIFIED.);
#19=LINE('',#357,#28);
#20=LINE('',#359,#29);
#21=LINE('',#361,#30);
#22=LINE('',#362,#31);
#23=LINE('',#370,#32);
#24=LINE('',#372,#33);
#25=LINE('',#374,#34);
#26=LINE('',#375,#35);
#27=LINE('',#400,#36);
#28=VECTOR('',#285,0.491287847477901);
#29=VECTOR('',#286,10.);
#30=VECTOR('',#287,1.02842712474619);
#31=VECTOR('',#288,9.49999999999999);
#32=VECTOR('',#291,9.49999999999999);
#33=VECTOR('',#292,1.02842712474619);
#34=VECTOR('',#293,10.);
#35=VECTOR('',#294,0.4912878474779);
#36=VECTOR('',#301,2.);
#37=(
BOUNDED_CURVE()
B_SPLINE_CURVE(2,(#353,#354,#355),.UNSPECIFIED.,.F.,.F.)
B_SPLINE_CURVE_WITH_KNOTS((3,3),(0.,0.073384277602211),.UNSPECIFIED.)
CURVE()
GEOMETRIC_REPRESENTATION_ITEM()
RATIONAL_B_SPLINE_CURVE((1.,1.00480328960795,1.))
REPRESENTATION_ITEM('')
);
#38=(
BOUNDED_CURVE()
B_SPLINE_CURVE(2,(#366,#367,#368),.UNSPECIFIED.,.F.,.F.)
B_SPLINE_CURVE_WITH_KNOTS((3,3),(0.,0.0733842776022111),.UNSPECIFIED.)
CURVE()
GEOMETRIC_REPRESENTATION_ITEM()
RATIONAL_B_SPLINE_CURVE((1.,1.00480328960254,1.))
REPRESENTATION_ITEM('')
);
#39=PLANE('',#244);
#40=PLANE('',#245);
#41=PLANE('',#246);
#42=PLANE('',#249);
#43=PLANE('',#250);
#44=PLANE('',#258);
#45=PLANE('',#266);
#46=CYLINDRICAL_SURFACE('',#242,5.);
#47=CYLINDRICAL_SURFACE('',#247,1.);
#48=CYLINDRICAL_SURFACE('',#254,3.);
#49=CYLINDRICAL_SURFACE('',#262,4.);
#50=FACE_BOUND('',#78,.T.);
#51=FACE_BOUND('',#80,.T.);
#52=FACE_BOUND('',#89,.T.);
#53=FACE_BOUND('',#91,.T.);
#54=FACE_BOUND('',#93,.T.);
#55=FACE_BOUND('',#95,.T.);
#56=FACE_BOUND('',#97,.T.);
#57=FACE_BOUND('',#99,.T.);
#58=FACE_BOUND('',#101,.T.);
#59=FACE_BOUND('',#103,.T.);
#60=FACE_OUTER_BOUND('',#77,.T.);
#61=FACE_OUTER_BOUND('',#79,.T.);
#62=FACE_OUTER_BOUND('',#81,.T.);
#63=FACE_OUTER_BOUND('',#82,.T.);
#64=FACE_OUTER_BOUND('',#83,.T.);
#65=FACE_OUTER_BOUND('',#84,.T.);
#66=FACE_OUTER_BOUND('',#85,.T.);
#67=FACE_OUTER_BOUND('',#86,.T.);
#68=FACE_OUTER_BOUND('',#87,.T.);
#69=FACE_OUTER_BOUND('',#88,.T.);
#70=FACE_OUTER_BOUND('',#90,.T.);
#71=FACE_OUTER_BOUND('',#92,.T.);
#72=FACE_OUTER_BOUND('',#94,.T.);
#73=FACE_OUTER_BOUND('',#96,.T.);
#74=FACE_OUTER_BOUND('',#98,.T.);
#75=FACE_OUTER_BOUND('',#100,.T.);
#76=FACE_OUTER_BOUND('',#102,.T.);
#77=EDGE_LOOP('',(#164));
#78=EDGE_LOOP('',(#165));
#79=EDGE_LOOP('',(#166));
#80=EDGE_LOOP('',(#167));
#81=EDGE_LOOP('',(#168));
#82=EDGE_LOOP('',(#169,#170,#171,#172,#173));
#83=EDGE_LOOP('',(#174,#175,#176,#177,#178));
#84=EDGE_LOOP('',(#179,#180,#181,#182,#183));
#85=EDGE_LOOP('',(#184,#185,#186,#187));
#86=EDGE_LOOP('',(#188,#189,#190,#191));
#87=EDGE_LOOP('',(#192,#193,#194,#195));
#88=EDGE_LOOP('',(#196,#197,#198,#199,#200));
#89=EDGE_LOOP('',(#201));
#90=EDGE_LOOP('',(#202));
#91=EDGE_LOOP('',(#203));
#92=EDGE_LOOP('',(#204));
#93=EDGE_LOOP('',(#205));
#94=EDGE_LOOP('',(#206));
#95=EDGE_LOOP('',(#207));
#96=EDGE_LOOP('',(#208));
#97=EDGE_LOOP('',(#209));
#98=EDGE_LOOP('',(#210));
#99=EDGE_LOOP('',(#211));
#100=EDGE_LOOP('',(#212));
#101=EDGE_LOOP('',(#213));
#102=EDGE_LOOP('',(#214));
#103=EDGE_LOOP('',(#215));
#104=CIRCLE('',#240,3.8);
#105=CIRCLE('',#241,5.);
#106=CIRCLE('',#243,5.00000000000001);
#107=CIRCLE('',#248,1.);
#108=CIRCLE('',#251,2.5);
#109=CIRCLE('',#253,3.);
#110=CIRCLE('',#255,3.);
#111=CIRCLE('',#257,4.80000000000001);
#112=CIRCLE('',#259,4.25);
#113=CIRCLE('',#261,4.);
#114=CIRCLE('',#263,4.);
#115=CIRCLE('',#265,3.5);
#116=CIRCLE('',#267,3.25);
#117=VERTEX_POINT('',#342);
#118=VERTEX_POINT('',#344);
#119=VERTEX_POINT('',#347);
#120=VERTEX_POINT('',#351);
#121=VERTEX_POINT('',#352);
#122=VERTEX_POINT('',#356);
#123=VERTEX_POINT('',#358);
#124=VERTEX_POINT('',#360);
#125=VERTEX_POINT('',#364);
#126=VERTEX_POINT('',#365);
#127=VERTEX_POINT('',#369);
#128=VERTEX_POINT('',#371);
#129=VERTEX_POINT('',#373);
#130=VERTEX_POINT('',#377);
#131=VERTEX_POINT('',#406);
#132=VERTEX_POINT('',#409);
#133=VERTEX_POINT('',#412);
#134=VERTEX_POINT('',#415);
#135=VERTEX_POINT('',#418);
#136=VERTEX_POINT('',#421);
#137=VERTEX_POINT('',#424);
#138=EDGE_CURVE('',#117,#117,#104,.T.);
#139=EDGE_CURVE('',#118,#118,#105,.T.);
#140=EDGE_CURVE('',#119,#119,#106,.T.);
#141=EDGE_CURVE('',#120,#121,#37,.T.);
#142=EDGE_CURVE('',#122,#120,#19,.T.);
#143=EDGE_CURVE('',#122,#123,#20,.T.);
#144=EDGE_CURVE('',#124,#123,#21,.T.);
#145=EDGE_CURVE('',#121,#124,#22,.T.);
#146=EDGE_CURVE('',#125,#126,#38,.T.);
#147=EDGE_CURVE('',#127,#125,#23,.T.);
#148=EDGE_CURVE('',#127,#128,#24,.T.);
#149=EDGE_CURVE('',#128,#129,#25,.T.);
#150=EDGE_CURVE('',#126,#129,#26,.T.);
#151=EDGE_CURVE('',#130,#127,#17,.T.);
#152=EDGE_CURVE('',#124,#130,#18,.T.);
#153=EDGE_CURVE('',#123,#128,#107,.T.);
#154=EDGE_CURVE('',#129,#122,#27,.T.);
#155=EDGE_CURVE('',#126,#120,#108,.T.);
#156=EDGE_CURVE('',#121,#125,#109,.T.);
#157=EDGE_CURVE('',#131,#131,#110,.T.);
#158=EDGE_CURVE('',#132,#132,#111,.T.);
#159=EDGE_CURVE('',#133,#133,#112,.T.);
#160=EDGE_CURVE('',#134,#134,#113,.T.);
#161=EDGE_CURVE('',#135,#135,#114,.T.);
#162=EDGE_CURVE('',#136,#136,#115,.T.);
#163=EDGE_CURVE('',#137,#137,#116,.T.);
#164=ORIENTED_EDGE('',*,*,#138,.T.);
#165=ORIENTED_EDGE('',*,*,#139,.T.);
#166=ORIENTED_EDGE('',*,*,#140,.F.);
#167=ORIENTED_EDGE('',*,*,#139,.F.);
#168=ORIENTED_EDGE('',*,*,#138,.F.);
#169=ORIENTED_EDGE('',*,*,#141,.F.);
#170=ORIENTED_EDGE('',*,*,#142,.F.);
#171=ORIENTED_EDGE('',*,*,#143,.T.);
#172=ORIENTED_EDGE('',*,*,#144,.F.);
#173=ORIENTED_EDGE('',*,*,#145,.F.);
#174=ORIENTED_EDGE('',*,*,#146,.F.);
#175=ORIENTED_EDGE('',*,*,#147,.F.);
#176=ORIENTED_EDGE('',*,*,#148,.T.);
#177=ORIENTED_EDGE('',*,*,#149,.T.);
#178=ORIENTED_EDGE('',*,*,#150,.F.);
#179=ORIENTED_EDGE('',*,*,#151,.F.);
#180=ORIENTED_EDGE('',*,*,#152,.F.);
#181=ORIENTED_EDGE('',*,*,#144,.T.);
#182=ORIENTED_EDGE('',*,*,#153,.T.);
#183=ORIENTED_EDGE('',*,*,#148,.F.);
#184=ORIENTED_EDGE('',*,*,#143,.F.);
#185=ORIENTED_EDGE('',*,*,#154,.F.);
#186=ORIENTED_EDGE('',*,*,#149,.F.);
#187=ORIENTED_EDGE('',*,*,#153,.F.);
#188=ORIENTED_EDGE('',*,*,#150,.T.);
#189=ORIENTED_EDGE('',*,*,#154,.T.);
#190=ORIENTED_EDGE('',*,*,#142,.T.);
#191=ORIENTED_EDGE('',*,*,#155,.F.);
#192=ORIENTED_EDGE('',*,*,#146,.T.);
#193=ORIENTED_EDGE('',*,*,#155,.T.);
#194=ORIENTED_EDGE('',*,*,#141,.T.);
#195=ORIENTED_EDGE('',*,*,#156,.T.);
#196=ORIENTED_EDGE('',*,*,#147,.T.);
#197=ORIENTED_EDGE('',*,*,#156,.F.);
#198=ORIENTED_EDGE('',*,*,#145,.T.);
#199=ORIENTED_EDGE('',*,*,#152,.T.);
#200=ORIENTED_EDGE('',*,*,#151,.T.);
#201=ORIENTED_EDGE('',*,*,#157,.T.);
#202=ORIENTED_EDGE('',*,*,#158,.F.);
#203=ORIENTED_EDGE('',*,*,#140,.T.);
#204=ORIENTED_EDGE('',*,*,#158,.T.);
#205=ORIENTED_EDGE('',*,*,#159,.F.);
#206=ORIENTED_EDGE('',*,*,#160,.F.);
#207=ORIENTED_EDGE('',*,*,#159,.T.);
#208=ORIENTED_EDGE('',*,*,#161,.F.);
#209=ORIENTED_EDGE('',*,*,#160,.T.);
#210=ORIENTED_EDGE('',*,*,#162,.F.);
#211=ORIENTED_EDGE('',*,*,#161,.T.);
#212=ORIENTED_EDGE('',*,*,#162,.T.);
#213=ORIENTED_EDGE('',*,*,#163,.F.);
#214=ORIENTED_EDGE('',*,*,#157,.F.);
#215=ORIENTED_EDGE('',*,*,#163,.T.);
#216=CONICAL_SURFACE('',#239,4.4,45.);
#217=CONICAL_SURFACE('',#252,2.75,44.9999999999997);
#218=CONICAL_SURFACE('',#256,4.90000000000001,45.0000000000008);
#219=CONICAL_SURFACE('',#264,3.75,44.9999999999997);
#220=ADVANCED_FACE('',(#60,#50),#216,.T.);
#221=ADVANCED_FACE('',(#61,#51),#46,.T.);
#222=ADVANCED_FACE('',(#62),#39,.T.);
#223=ADVANCED_FACE('',(#63),#40,.F.);
#224=ADVANCED_FACE('',(#64),#41,.F.);
#225=ADVANCED_FACE('',(#65),#47,.F.);
#226=ADVANCED_FACE('',(#66),#42,.F.);
#227=ADVANCED_FACE('',(#67),#43,.T.);
#228=ADVANCED_FACE('',(#68),#217,.T.);
#229=ADVANCED_FACE('',(#69,#52),#48,.T.);
#230=ADVANCED_FACE('',(#70,#53),#218,.T.);
#231=ADVANCED_FACE('',(#71,#54),#44,.T.);
#232=ADVANCED_FACE('',(#72,#55),#15,.F.);
#233=ADVANCED_FACE('',(#73,#56),#49,.T.);
#234=ADVANCED_FACE('',(#74,#57),#219,.T.);
#235=ADVANCED_FACE('',(#75,#58),#45,.T.);
#236=ADVANCED_FACE('',(#76,#59),#16,.F.);
#237=CLOSED_SHELL('',(#220,#221,#222,#223,#224,#225,#226,#227,#228,#229,
#230,#231,#232,#233,#234,#235,#236));
#238=AXIS2_PLACEMENT_3D('placement',#340,#269,#270);
#239=AXIS2_PLACEMENT_3D('',#341,#271,#272);
#240=AXIS2_PLACEMENT_3D('',#343,#273,#274);
#241=AXIS2_PLACEMENT_3D('',#345,#275,#276);
#242=AXIS2_PLACEMENT_3D('',#346,#277,#278);
#243=AXIS2_PLACEMENT_3D('',#348,#279,#280);
#244=AXIS2_PLACEMENT_3D('',#349,#281,#282);
#245=AXIS2_PLACEMENT_3D('',#350,#283,#284);
#246=AXIS2_PLACEMENT_3D('',#363,#289,#290);
#247=AXIS2_PLACEMENT_3D('',#376,#295,#296);
#248=AXIS2_PLACEMENT_3D('',#398,#297,#298);
#249=AXIS2_PLACEMENT_3D('',#399,#299,#300);
#250=AXIS2_PLACEMENT_3D('',#401,#302,#303);
#251=AXIS2_PLACEMENT_3D('',#402,#304,#305);
#252=AXIS2_PLACEMENT_3D('',#403,#306,#307);
#253=AXIS2_PLACEMENT_3D('',#404,#308,#309);
#254=AXIS2_PLACEMENT_3D('',#405,#310,#311);
#255=AXIS2_PLACEMENT_3D('',#407,#312,#313);
#256=AXIS2_PLACEMENT_3D('',#408,#314,#315);
#257=AXIS2_PLACEMENT_3D('',#410,#316,#317);
#258=AXIS2_PLACEMENT_3D('',#411,#318,#319);
#259=AXIS2_PLACEMENT_3D('',#413,#320,#321);
#260=AXIS2_PLACEMENT_3D('',#414,#322,#323);
#261=AXIS2_PLACEMENT_3D('',#416,#324,#325);
#262=AXIS2_PLACEMENT_3D('',#417,#326,#327);
#263=AXIS2_PLACEMENT_3D('',#419,#328,#329);
#264=AXIS2_PLACEMENT_3D('',#420,#330,#331);
#265=AXIS2_PLACEMENT_3D('',#422,#332,#333);
#266=AXIS2_PLACEMENT_3D('',#423,#334,#335);
#267=AXIS2_PLACEMENT_3D('',#425,#336,#337);
#268=AXIS2_PLACEMENT_3D('',#426,#338,#339);
#269=DIRECTION('axis',(0.,0.,1.));
#270=DIRECTION('refdir',(1.,0.,0.));
#271=DIRECTION('center_axis',(1.,4.28724516205697E-16,0.));
#272=DIRECTION('ref_axis',(1.85131041088823E-16,-1.,0.));
#273=DIRECTION('center_axis',(1.,4.28724516205697E-16,0.));
#274=DIRECTION('ref_axis',(4.28724516205697E-16,-1.,0.));
#275=DIRECTION('center_axis',(-1.,-4.28724516205697E-16,0.));
#276=DIRECTION('ref_axis',(0.,-1.,0.));
#277=DIRECTION('center_axis',(1.,4.28724516205697E-16,0.));
#278=DIRECTION('ref_axis',(0.,1.,0.));
#279=DIRECTION('center_axis',(1.,4.28724516205697E-16,0.));
#280=DIRECTION('ref_axis',(0.,0.,-1.));
#281=DIRECTION('center_axis',(-1.,-4.28724516205697E-16,0.));
#282=DIRECTION('ref_axis',(0.,0.,1.));
#283=DIRECTION('center_axis',(-1.11022302462516E-16,0.,1.));
#284=DIRECTION('ref_axis',(-1.,-4.88498130835069E-16,-1.11022302462516E-16));
#285=DIRECTION('',(-4.28724516205697E-16,1.,-4.75979829112845E-32));
#286=DIRECTION('',(-1.,-4.89956856163064E-16,-1.11022302462516E-16));
#287=DIRECTION('',(0.,-1.,0.));
#288=DIRECTION('',(-1.,-4.28724516205697E-16,0.));
#289=DIRECTION('center_axis',(1.94289029309402E-16,0.,-1.));
#290=DIRECTION('ref_axis',(1.,4.88498130835069E-16,1.99840144432528E-16));
#291=DIRECTION('',(1.,4.28724516205697E-16,0.));
#292=DIRECTION('',(0.,-1.,0.));
#293=DIRECTION('',(1.,4.89956856163064E-16,1.94289029309402E-16));
#294=DIRECTION('',(4.28724516205697E-16,-1.,8.32964700947479E-32));
#295=DIRECTION('center_axis',(0.,-1.,0.));
#296=DIRECTION('ref_axis',(0.,0.,1.));
#297=DIRECTION('center_axis',(4.89956856163064E-16,-1.,0.));
#298=DIRECTION('ref_axis',(0.,0.,1.));
#299=DIRECTION('center_axis',(5.32907051820075E-16,-1.,-1.00251073371837E-32));
#300=DIRECTION('ref_axis',(0.,0.,-1.));
#301=DIRECTION('',(4.29800929304426E-48,-1.00251073371837E-32,1.));
#302=DIRECTION('center_axis',(1.,4.28724516205697E-16,0.));
#303=DIRECTION('ref_axis',(0.,0.,-1.));
#304=DIRECTION('center_axis',(-1.,-4.28724516205697E-16,0.));
#305=DIRECTION('ref_axis',(4.28724516205697E-16,-1.,0.));
#306=DIRECTION('center_axis',(-1.,-4.287245162057E-16,0.));
#307=DIRECTION('ref_axis',(1.94874780093498E-16,-1.,0.));
#308=DIRECTION('center_axis',(1.,4.28724516205697E-16,0.));
#309=DIRECTION('ref_axis',(0.,-1.,0.));
#310=DIRECTION('center_axis',(1.,4.28724516205697E-16,0.));
#311=DIRECTION('ref_axis',(0.,1.,0.));
#312=DIRECTION('center_axis',(1.,4.28724516205697E-16,0.));
#313=DIRECTION('ref_axis',(0.,0.,-1.));
#314=DIRECTION('center_axis',(-1.,-4.28724516205697E-16,0.));
#315=DIRECTION('ref_axis',(0.,1.,0.));
#316=DIRECTION('center_axis',(1.,4.28724516205697E-16,0.));
#317=DIRECTION('ref_axis',(0.,0.,-1.));
#318=DIRECTION('center_axis',(1.,4.28724516205697E-16,0.));
#319=DIRECTION('ref_axis',(0.,0.,-1.));
#320=DIRECTION('center_axis',(1.,4.28724516205697E-16,0.));
#321=DIRECTION('ref_axis',(0.,0.,-1.));
#322=DIRECTION('center_axis',(1.,4.28724516205697E-16,0.));
#323=DIRECTION('ref_axis',(0.,0.,-1.));
#324=DIRECTION('center_axis',(1.,4.28724516205697E-16,0.));
#325=DIRECTION('ref_axis',(0.,0.,-1.));
#326=DIRECTION('center_axis',(1.,4.28724516205697E-16,0.));
#327=DIRECTION('ref_axis',(0.,1.,0.));
#328=DIRECTION('center_axis',(1.,4.28724516205697E-16,0.));
#329=DIRECTION('ref_axis',(0.,0.,-1.));
#330=DIRECTION('center_axis',(-1.,-4.28724516205697E-16,0.));
#331=DIRECTION('ref_axis',(0.,1.,0.));
#332=DIRECTION('center_axis',(1.,4.28724516205697E-16,0.));
#333=DIRECTION('ref_axis',(0.,0.,-1.));
#334=DIRECTION('center_axis',(1.,4.28724516205697E-16,0.));
#335=DIRECTION('ref_axis',(0.,0.,-1.));
#336=DIRECTION('center_axis',(1.,4.28724516205697E-16,0.));
#337=DIRECTION('ref_axis',(0.,0.,-1.));
#338=DIRECTION('center_axis',(1.,4.28724516205697E-16,0.));
#339=DIRECTION('ref_axis',(0.,0.,-1.));
#340=CARTESIAN_POINT('',(0.,0.,0.));
#341=CARTESIAN_POINT('Origin',(0.600000000000004,2.57234709723419E-16,0.));
#342=CARTESIAN_POINT('',(4.52515009590523E-16,3.8,4.65365783675994E-16));
#343=CARTESIAN_POINT('Origin',(2.08166817117217E-15,3.69778549322349E-31,
0.));
#344=CARTESIAN_POINT('',(1.20000000000001,5.,-6.12323399573677E-16));
#345=CARTESIAN_POINT('Origin',(1.20000000000001,5.14469419446838E-16,0.));
#346=CARTESIAN_POINT('Origin',(38.9,1.66773836804016E-14,0.));
#347=CARTESIAN_POINT('',(77.8,5.00000000000004,0.));
#348=CARTESIAN_POINT('Origin',(77.8,3.33547673608032E-14,0.));
#349=CARTESIAN_POINT('Origin',(0.,5.,0.));
#350=CARTESIAN_POINT('Origin',(112.,3.00000000000004,0.999999999999998));
#351=CARTESIAN_POINT('',(112.,2.29128784747795,0.999999999999998));
#352=CARTESIAN_POINT('',(111.5,2.82842712474623,0.999999999999998));
#353=CARTESIAN_POINT('Ctrl Pts',(112.,2.29128784747795,0.999999999999999));
#354=CARTESIAN_POINT('Ctrl Pts',(111.776228963925,2.53544206441868,0.999999999999999));
#355=CARTESIAN_POINT('Ctrl Pts',(111.5,2.82842712474623,0.999999999999999));
#356=CARTESIAN_POINT('',(112.,1.80000000000004,0.999999999999998));
#357=CARTESIAN_POINT('',(112.,1.50000000000005,0.999999999999998));
#358=CARTESIAN_POINT('',(102.,1.80000000000004,0.999999999999997));
#359=CARTESIAN_POINT('',(112.,1.80000000000004,0.999999999999998));
#360=CARTESIAN_POINT('',(102.,2.82842712474623,0.999999999999997));
#361=CARTESIAN_POINT('',(102.,3.00000000000004,0.999999999999997));
#362=CARTESIAN_POINT('',(105.625,2.82842712474623,0.999999999999998));
#363=CARTESIAN_POINT('Origin',(102.,3.00000000000004,-1.));
#364=CARTESIAN_POINT('',(111.5,2.82842712474623,-1.));
#365=CARTESIAN_POINT('',(112.,2.29128784747794,-1.));
#366=CARTESIAN_POINT('Ctrl Pts',(111.5,2.82842712474623,-1.));
#367=CARTESIAN_POINT('Ctrl Pts',(111.776228963925,2.53544206441896,-1.));
#368=CARTESIAN_POINT('Ctrl Pts',(112.,2.29128784747794,-1.));
#369=CARTESIAN_POINT('',(102.,2.82842712474623,-1.));
#370=CARTESIAN_POINT('',(105.625,2.82842712474623,-1.));
#371=CARTESIAN_POINT('',(102.,1.80000000000004,-1.));
#372=CARTESIAN_POINT('',(102.,3.00000000000004,-1.));
#373=CARTESIAN_POINT('',(112.,1.80000000000004,-1.));
#374=CARTESIAN_POINT('',(102.,1.80000000000004,-1.));
#375=CARTESIAN_POINT('',(112.,1.50000000000005,-1.));
#376=CARTESIAN_POINT('Origin',(102.,3.00000000000004,-3.58778989869518E-15));
#377=CARTESIAN_POINT('',(101.,3.00000000000004,4.93038065763132E-31));
#378=CARTESIAN_POINT('Ctrl Pts',(101.,3.00000000000004,-2.98372437868011E-15));
#379=CARTESIAN_POINT('Ctrl Pts',(101.,3.00000000000004,-0.126587321867355));
#380=CARTESIAN_POINT('Ctrl Pts',(101.025495579197,2.9912023794346,-0.26096613722086));
#381=CARTESIAN_POINT('Ctrl Pts',(101.127856513883,2.95943695530344,-0.507077811957406));
#382=CARTESIAN_POINT('Ctrl Pts',(101.204670456772,2.93687311015686,-0.618884019145014));
#383=CARTESIAN_POINT('Ctrl Pts',(101.381156917627,2.89406885606302,-0.795370479999708));
#384=CARTESIAN_POINT('Ctrl Pts',(101.492946820042,2.87093041276237,-0.872152907626364));
#385=CARTESIAN_POINT('Ctrl Pts',(101.738998026537,2.83782678287129,-0.97449033926882));
#386=CARTESIAN_POINT('Ctrl Pts',(101.873353939592,2.82842712474623,-1.));
#387=CARTESIAN_POINT('Ctrl Pts',(102.,2.82842712474623,-1.));
#388=CARTESIAN_POINT('Ctrl Pts',(102.,2.82842712474623,0.999999999999997));
#389=CARTESIAN_POINT('Ctrl Pts',(101.873353939592,2.82842712474623,0.999999999999997));
#390=CARTESIAN_POINT('Ctrl Pts',(101.738998026537,2.83782678287129,0.974490339268813));
#391=CARTESIAN_POINT('Ctrl Pts',(101.492946820042,2.87093041276237,0.872152907626357));
#392=CARTESIAN_POINT('Ctrl Pts',(101.381156917627,2.89406885606302,0.795370479999701));
#393=CARTESIAN_POINT('Ctrl Pts',(101.204670456772,2.93687311015687,0.618884019145007));
#394=CARTESIAN_POINT('Ctrl Pts',(101.127856513883,2.95943695530344,0.507077811957405));
#395=CARTESIAN_POINT('Ctrl Pts',(101.025495579197,2.9912023794346,0.260966137220854));
#396=CARTESIAN_POINT('Ctrl Pts',(101.,3.00000000000004,0.126587321867348));
#397=CARTESIAN_POINT('Ctrl Pts',(101.,3.00000000000004,-3.78169717762944E-15));
#398=CARTESIAN_POINT('Origin',(102.,1.80000000000004,-3.58778989869518E-15));
#399=CARTESIAN_POINT('Origin',(106.865283785209,1.80000000000004,-2.80975097135318E-15));
#400=CARTESIAN_POINT('',(112.,1.80000000000004,-1.40487548567659E-15));
#401=CARTESIAN_POINT('Origin',(112.,4.82947015711943E-14,0.));
#402=CARTESIAN_POINT('Origin',(112.,4.8017145815038E-14,0.));
#403=CARTESIAN_POINT('Origin',(111.75,4.79099646859866E-14,0.));
#404=CARTESIAN_POINT('Origin',(111.5,4.78027835569352E-14,0.));
#405=CARTESIAN_POINT('Origin',(105.625,4.52840270242267E-14,0.));
#406=CARTESIAN_POINT('',(99.25,3.00000000000004,0.));
#407=CARTESIAN_POINT('Origin',(99.25,4.25509082334154E-14,0.));
#408=CARTESIAN_POINT('Origin',(77.9,3.33976398124238E-14,0.));
#409=CARTESIAN_POINT('',(78.,4.80000000000004,0.));
#410=CARTESIAN_POINT('Origin',(78.,3.34405122640443E-14,0.));
#411=CARTESIAN_POINT('Origin',(78.,4.25000000000004,0.));
#412=CARTESIAN_POINT('',(78.,4.25000000000004,0.));
#413=CARTESIAN_POINT('Origin',(78.,3.34405122640443E-14,0.));
#414=CARTESIAN_POINT('Origin',(78.25,3.35476933930958E-14,0.));
#415=CARTESIAN_POINT('',(78.25,4.00000000000004,0.));
#416=CARTESIAN_POINT('Origin',(78.25,3.35476933930958E-14,0.));
#417=CARTESIAN_POINT('Origin',(88.375,3.78885291196784E-14,0.));
#418=CARTESIAN_POINT('',(98.5,4.00000000000005,0.));
#419=CARTESIAN_POINT('Origin',(98.5,4.22293648462611E-14,0.));
#420=CARTESIAN_POINT('Origin',(98.75,4.23365459753125E-14,0.));
#421=CARTESIAN_POINT('',(99.,3.50000000000005,0.));
#422=CARTESIAN_POINT('Origin',(99.,4.2443727104364E-14,0.));
#423=CARTESIAN_POINT('Origin',(99.,3.25000000000004,0.));
#424=CARTESIAN_POINT('',(99.,3.25000000000004,0.));
#425=CARTESIAN_POINT('Origin',(99.,4.2443727104364E-14,0.));
#426=CARTESIAN_POINT('Origin',(99.25,4.25509082334154E-14,0.));
#427=UNCERTAINTY_MEASURE_WITH_UNIT(LENGTH_MEASURE(0.01),#431,
'DISTANCE_ACCURACY_VALUE',
'Maximum model space distance between geometric entities at asserted c
onnectivities');
#428=UNCERTAINTY_MEASURE_WITH_UNIT(LENGTH_MEASURE(1.E-6),#431,
'DISTANCE_ACCURACY_VALUE',
'Maximum model space distance between geometric entities at asserted c
onnectivities');
#429=(
GEOMETRIC_REPRESENTATION_CONTEXT(3)
GLOBAL_UNCERTAINTY_ASSIGNED_CONTEXT((#427))
GLOBAL_UNIT_ASSIGNED_CONTEXT((#431,#434,#432))
REPRESENTATION_CONTEXT('','3D')
);
#430=(
GEOMETRIC_REPRESENTATION_CONTEXT(3)
GLOBAL_UNCERTAINTY_ASSIGNED_CONTEXT((#428))
GLOBAL_UNIT_ASSIGNED_CONTEXT((#431,#434,#432))
REPRESENTATION_CONTEXT('','3D')
);
#431=(
LENGTH_UNIT()
NAMED_UNIT(*)
SI_UNIT(.MILLI.,.METRE.)
);
#432=(
NAMED_UNIT(*)
SI_UNIT($,.STERADIAN.)
SOLID_ANGLE_UNIT()
);
#433=DIMENSIONAL_EXPONENTS(0.,0.,0.,0.,0.,0.,0.);
#434=(
CONVERSION_BASED_UNIT('degree',#436)
NAMED_UNIT(#433)
PLANE_ANGLE_UNIT()
);
#435=(
NAMED_UNIT(*)
PLANE_ANGLE_UNIT()
SI_UNIT($,.RADIAN.)
);
#436=PLANE_ANGLE_MEASURE_WITH_UNIT(PLANE_ANGLE_MEASURE(0.01745329252),#435);
#437=SHAPE_DEFINITION_REPRESENTATION(#438,#439);
#438=PRODUCT_DEFINITION_SHAPE('',$,#441);
#439=SHAPE_REPRESENTATION('',(#238),#429);
#440=PRODUCT_DEFINITION_CONTEXT('part definition',#445,'design');
#441=PRODUCT_DEFINITION(
'\X2\041D041B0418\X0\18-2.80.30.20.01. \X2\04120438043D0442\X0\ \X2\0442
043E0447043D043E0433043E\X0\ \X2\043F043E0432043E0440043E04420430\X0\ 
\X2\041C\X0\10\X2\0445\X0\1',
'\X2\041D041B0418\X0\18-2.80.30.20.01. \X2\04120438043D0442\X0\ \X2\0442
043E0447043D043E0433043E\X0\ \X2\043F043E0432043E0440043E04420430\X0\ 
\X2\041C\X0\10\X2\0445\X0\1',#442,#440);
#442=PRODUCT_DEFINITION_FORMATION('',$,#447);
#443=PRODUCT_RELATED_PRODUCT_CATEGORY(
'\X2\041D041B0418\X0\18-2.80.30.20.01. \X2\04120438043D0442\X0\ \X2\0442
043E0447043D043E0433043E\X0\ \X2\043F043E0432043E0440043E04420430\X0\ 
\X2\041C\X0\10\X2\0445\X0\1',
'\X2\041D041B0418\X0\18-2.80.30.20.01. \X2\04120438043D0442\X0\ \X2\0442
043E0447043D043E0433043E\X0\ \X2\043F043E0432043E0440043E04420430\X0\ 
\X2\041C\X0\10\X2\0445\X0\1',(#447));
#444=APPLICATION_PROTOCOL_DEFINITION('international standard',
'automotive_design',2009,#445);
#445=APPLICATION_CONTEXT(
'Core Data for Automotive Mechanical Design Process');
#446=PRODUCT_CONTEXT('part definition',#445,'mechanical');
#447=PRODUCT(
'\X2\041D041B0418\X0\18-2.80.30.20.01. \X2\04120438043D0442\X0\ \X2\0442
043E0447043D043E0433043E\X0\ \X2\043F043E0432043E0440043E04420430\X0\ 
\X2\041C\X0\10\X2\0445\X0\1',
'\X2\041D041B0418\X0\18-2.80.30.20.01. \X2\04120438043D0442\X0\ \X2\0442
043E0447043D043E0433043E\X0\ \X2\043F043E0432043E0440043E04420430\X0\ 
\X2\041C\X0\10\X2\0445\X0\1',$,(#446));
#448=PRESENTATION_STYLE_ASSIGNMENT((#449));
#449=SURFACE_STYLE_USAGE(.BOTH.,#450);
#450=SURFACE_SIDE_STYLE($,(#451));
#451=SURFACE_STYLE_FILL_AREA(#452);
#452=FILL_AREA_STYLE($,(#453));
#453=FILL_AREA_STYLE_COLOUR($,#454);
#454=COLOUR_RGB('',0.745098039215686,0.737254901960784,0.729411764705882);
ENDSEC;
END-ISO-10303-21;
