ISO-10303-21;
HEADER;
/* Generated by software containing ST-Developer
 * from STEP Tools, Inc. (www.steptools.com) 
 */
/* OPTION: using custom schema-name function */

FILE_DESCRIPTION(
/* description */ (''),
/* implementation_level */ '2;1');

FILE_NAME(
/* name */ 'E8212 \X2\0412043A043B04300434044B0448\X0\ v2 \X2\0410041F
042F0421\X0\.713153.001.stp',
/* time_stamp */ '2018-07-17T12:39:09+03:00',
/* author */ (''),
/* organization */ (''),
/* preprocessor_version */ 'ST-DEVELOPER v16',
/* originating_system */ 'SIEMENS PLM Software NX 10.0',
/* authorisation */ '');

FILE_SCHEMA (('AUTOMOTIVE_DESIGN { 1 0 10303 214 3 1 1 1 }'));
ENDSEC;

DATA;
#10=PROPERTY_DEFINITION_REPRESENTATION(#14,#12);
#11=PROPERTY_DEFINITION_REPRESENTATION(#15,#13);
#12=REPRESENTATION('',(#16),#187);
#13=REPRESENTATION('',(#17),#187);
#14=PROPERTY_DEFINITION('pmi validation property','',#21);
#15=PROPERTY_DEFINITION('pmi validation property','',#21);
#16=VALUE_REPRESENTATION_ITEM('number of annotations',COUNT_MEASURE(0.));
#17=VALUE_REPRESENTATION_ITEM('number of views',COUNT_MEASURE(0.));
#18=SHAPE_REPRESENTATION_RELATIONSHIP('None',
'relationship between cont484C090F01ed-None and cont484C090F01ed-None',
#30,#19);
#19=ADVANCED_BREP_SHAPE_REPRESENTATION('cont484C090F01ed-None',(#40),#187);
#20=SHAPE_DEFINITION_REPRESENTATION(#21,#30);
#21=PRODUCT_DEFINITION_SHAPE('','',#22);
#22=PRODUCT_DEFINITION(' ','',#24,#23);
#23=PRODUCT_DEFINITION_CONTEXT('part definition',#29,'design');
#24=PRODUCT_DEFINITION_FORMATION_WITH_SPECIFIED_SOURCE(' ',' ',#26,
 .NOT_KNOWN.);
#25=PRODUCT_RELATED_PRODUCT_CATEGORY('part','',(#26));
#26=PRODUCT('cont484C090F01ed','cont484C090F01ed',' ',(#27));
#27=PRODUCT_CONTEXT(' ',#29,'mechanical');
#28=APPLICATION_PROTOCOL_DEFINITION('international standard',
'automotive_design',2010,#29);
#29=APPLICATION_CONTEXT(
'core data for automotive mechanical design processes');
#30=SHAPE_REPRESENTATION('cont484C090F01ed-None',(#119),#187);
#31=PRESENTATION_LAYER_ASSIGNMENT('1','Layer 1',(#40));
#32=STYLED_ITEM('',(#33),#40);
#33=PRESENTATION_STYLE_ASSIGNMENT((#34));
#34=SURFACE_STYLE_USAGE(.BOTH.,#35);
#35=SURFACE_SIDE_STYLE('',(#36));
#36=SURFACE_STYLE_FILL_AREA(#37);
#37=FILL_AREA_STYLE('',(#38));
#38=FILL_AREA_STYLE_COLOUR('',#39);
#39=COLOUR_RGB('Medium Steel',0.596063172350652,0.666666666666667,0.686259250782025);
#40=MANIFOLD_SOLID_BREP('',#41);
#41=CLOSED_SHELL('',(#46,#47,#48,#49,#50,#51,#52));
#42=CONICAL_SURFACE('',#133,6.3,45.);
#43=CYLINDRICAL_SURFACE('',#124,5.5);
#44=CYLINDRICAL_SURFACE('',#126,6.8);
#45=CYLINDRICAL_SURFACE('',#131,5.);
#46=ADVANCED_FACE('',(#56,#57),#53,.F.);
#47=ADVANCED_FACE('',(#58,#59),#43,.F.);
#48=ADVANCED_FACE('',(#60,#61),#44,.T.);
#49=ADVANCED_FACE('',(#62,#63),#54,.T.);
#50=ADVANCED_FACE('',(#64,#65),#45,.F.);
#51=ADVANCED_FACE('',(#66,#67),#55,.T.);
#52=ADVANCED_FACE('',(#68,#69),#42,.T.);
#53=PLANE('',#122);
#54=PLANE('',#129);
#55=PLANE('',#132);
#56=FACE_BOUND('',#70,.T.);
#57=FACE_BOUND('',#71,.T.);
#58=FACE_BOUND('',#72,.T.);
#59=FACE_BOUND('',#73,.T.);
#60=FACE_BOUND('',#74,.T.);
#61=FACE_BOUND('',#75,.T.);
#62=FACE_BOUND('',#76,.T.);
#63=FACE_BOUND('',#77,.T.);
#64=FACE_BOUND('',#78,.T.);
#65=FACE_BOUND('',#79,.T.);
#66=FACE_BOUND('',#80,.T.);
#67=FACE_BOUND('',#81,.T.);
#68=FACE_BOUND('',#82,.T.);
#69=FACE_BOUND('',#83,.T.);
#70=EDGE_LOOP('',(#84));
#71=EDGE_LOOP('',(#85));
#72=EDGE_LOOP('',(#86));
#73=EDGE_LOOP('',(#87));
#74=EDGE_LOOP('',(#88));
#75=EDGE_LOOP('',(#89));
#76=EDGE_LOOP('',(#90));
#77=EDGE_LOOP('',(#91));
#78=EDGE_LOOP('',(#92));
#79=EDGE_LOOP('',(#93));
#80=EDGE_LOOP('',(#94));
#81=EDGE_LOOP('',(#95));
#82=EDGE_LOOP('',(#96));
#83=EDGE_LOOP('',(#97));
#84=ORIENTED_EDGE('',*,*,#105,.F.);
#85=ORIENTED_EDGE('',*,*,#106,.F.);
#86=ORIENTED_EDGE('',*,*,#106,.T.);
#87=ORIENTED_EDGE('',*,*,#107,.F.);
#88=ORIENTED_EDGE('',*,*,#108,.T.);
#89=ORIENTED_EDGE('',*,*,#105,.T.);
#90=ORIENTED_EDGE('',*,*,#109,.T.);
#91=ORIENTED_EDGE('',*,*,#110,.F.);
#92=ORIENTED_EDGE('',*,*,#111,.F.);
#93=ORIENTED_EDGE('',*,*,#110,.T.);
#94=ORIENTED_EDGE('',*,*,#107,.T.);
#95=ORIENTED_EDGE('',*,*,#111,.T.);
#96=ORIENTED_EDGE('',*,*,#108,.F.);
#97=ORIENTED_EDGE('',*,*,#109,.F.);
#98=VERTEX_POINT('',#166);
#99=VERTEX_POINT('',#168);
#100=VERTEX_POINT('',#171);
#101=VERTEX_POINT('',#174);
#102=VERTEX_POINT('',#177);
#103=VERTEX_POINT('',#179);
#104=VERTEX_POINT('',#182);
#105=EDGE_CURVE('',#98,#98,#112,.T.);
#106=EDGE_CURVE('',#99,#99,#113,.T.);
#107=EDGE_CURVE('',#100,#100,#114,.T.);
#108=EDGE_CURVE('',#101,#101,#115,.T.);
#109=EDGE_CURVE('',#102,#102,#116,.T.);
#110=EDGE_CURVE('',#103,#103,#117,.T.);
#111=EDGE_CURVE('',#104,#104,#118,.T.);
#112=CIRCLE('',#120,6.8);
#113=CIRCLE('',#121,5.5);
#114=CIRCLE('',#123,5.5);
#115=CIRCLE('',#125,6.8);
#116=CIRCLE('',#127,6.3);
#117=CIRCLE('',#128,5.);
#118=CIRCLE('',#130,5.);
#119=AXIS2_PLACEMENT_3D('',#164,#134,#135);
#120=AXIS2_PLACEMENT_3D('',#165,#136,#137);
#121=AXIS2_PLACEMENT_3D('',#167,#138,#139);
#122=AXIS2_PLACEMENT_3D('',#169,#140,#141);
#123=AXIS2_PLACEMENT_3D('',#170,#142,#143);
#124=AXIS2_PLACEMENT_3D('',#172,#144,#145);
#125=AXIS2_PLACEMENT_3D('',#173,#146,#147);
#126=AXIS2_PLACEMENT_3D('',#175,#148,#149);
#127=AXIS2_PLACEMENT_3D('',#176,#150,#151);
#128=AXIS2_PLACEMENT_3D('',#178,#152,#153);
#129=AXIS2_PLACEMENT_3D('',#180,#154,#155);
#130=AXIS2_PLACEMENT_3D('',#181,#156,#157);
#131=AXIS2_PLACEMENT_3D('',#183,#158,#159);
#132=AXIS2_PLACEMENT_3D('',#184,#160,#161);
#133=AXIS2_PLACEMENT_3D('',#185,#162,#163);
#134=DIRECTION('',(0.,0.,1.));
#135=DIRECTION('',(1.,0.,0.));
#136=DIRECTION('',(0.,0.,1.));
#137=DIRECTION('',(1.,0.,0.));
#138=DIRECTION('',(0.,0.,-1.));
#139=DIRECTION('',(1.,1.22464679914735E-16,0.));
#140=DIRECTION('',(0.,0.,1.));
#141=DIRECTION('',(1.,0.,0.));
#142=DIRECTION('',(0.,0.,-1.));
#143=DIRECTION('',(1.,1.22464679914735E-16,0.));
#144=DIRECTION('',(0.,0.,-1.));
#145=DIRECTION('',(-1.,0.,0.));
#146=DIRECTION('',(0.,0.,-1.));
#147=DIRECTION('',(1.,0.,0.));
#148=DIRECTION('',(0.,0.,-1.));
#149=DIRECTION('',(-1.,0.,0.));
#150=DIRECTION('',(0.,0.,1.));
#151=DIRECTION('',(1.,0.,0.));
#152=DIRECTION('',(0.,0.,1.));
#153=DIRECTION('',(1.,0.,0.));
#154=DIRECTION('',(0.,0.,1.));
#155=DIRECTION('',(1.,0.,0.));
#156=DIRECTION('',(0.,0.,1.));
#157=DIRECTION('',(1.,0.,0.));
#158=DIRECTION('',(0.,0.,1.));
#159=DIRECTION('',(1.,0.,0.));
#160=DIRECTION('',(0.,0.,-1.));
#161=DIRECTION('',(-1.,0.,0.));
#162=DIRECTION('',(0.,0.,-1.));
#163=DIRECTION('',(-1.,0.,1.72386313820611E-17));
#164=CARTESIAN_POINT('',(0.,0.,0.));
#165=CARTESIAN_POINT('',(0.,0.,0.));
#166=CARTESIAN_POINT('',(6.8,0.,0.));
#167=CARTESIAN_POINT('',(0.,0.,0.));
#168=CARTESIAN_POINT('',(5.5,6.73555739531044E-16,0.));
#169=CARTESIAN_POINT('',(0.,0.,0.));
#170=CARTESIAN_POINT('',(0.,0.,17.));
#171=CARTESIAN_POINT('',(5.5,6.73555739531044E-16,17.));
#172=CARTESIAN_POINT('',(0.,0.,19.));
#173=CARTESIAN_POINT('',(0.,0.,18.5));
#174=CARTESIAN_POINT('',(6.8,0.,18.5));
#175=CARTESIAN_POINT('',(0.,0.,19.));
#176=CARTESIAN_POINT('',(0.,0.,19.));
#177=CARTESIAN_POINT('',(6.3,0.,19.));
#178=CARTESIAN_POINT('',(0.,0.,19.));
#179=CARTESIAN_POINT('',(5.,0.,19.));
#180=CARTESIAN_POINT('',(0.,0.,19.));
#181=CARTESIAN_POINT('',(0.,0.,17.));
#182=CARTESIAN_POINT('',(5.,0.,17.));
#183=CARTESIAN_POINT('',(0.,0.,17.));
#184=CARTESIAN_POINT('',(0.,0.,17.));
#185=CARTESIAN_POINT('',(0.,0.,19.));
#186=MECHANICAL_DESIGN_GEOMETRIC_PRESENTATION_REPRESENTATION('',(#32),#187);
#187=(
GEOMETRIC_REPRESENTATION_CONTEXT(3)
GLOBAL_UNCERTAINTY_ASSIGNED_CONTEXT((#188))
GLOBAL_UNIT_ASSIGNED_CONTEXT((#194,#190,#189))
REPRESENTATION_CONTEXT('E8212 \X2\0412043A043B04300434044B0448\X0\ v2 
\X2\0410041F042F0421\X0\.713153','TOP_LEVEL_ASSEMBLY_PART')
);
#188=UNCERTAINTY_MEASURE_WITH_UNIT(LENGTH_MEASURE(2.E-5),#194,
'DISTANCE_ACCURACY_VALUE','Maximum Tolerance applied to model');
#189=(
NAMED_UNIT(*)
SI_UNIT($,.STERADIAN.)
SOLID_ANGLE_UNIT()
);
#190=(
CONVERSION_BASED_UNIT('DEGREE',#192)
NAMED_UNIT(#191)
PLANE_ANGLE_UNIT()
);
#191=DIMENSIONAL_EXPONENTS(0.,0.,0.,0.,0.,0.,0.);
#192=PLANE_ANGLE_MEASURE_WITH_UNIT(PLANE_ANGLE_MEASURE(0.0174532925),#193);
#193=(
NAMED_UNIT(*)
PLANE_ANGLE_UNIT()
SI_UNIT($,.RADIAN.)
);
#194=(
LENGTH_UNIT()
NAMED_UNIT(*)
SI_UNIT(.MILLI.,.METRE.)
);
ENDSEC;
END-ISO-10303-21;
