  0
SECTION
  2
HEADER
  9
$ACADVER
  1
AC1014
  9
$ACADMAINTVER
 70
     9
  9
$DWGCODEPAGE
  3
ANSI_1251
  9
$INSBASE
 10
0.0
 20
0.0
 30
0.0
  9
$EXTMIN
 10
1.000000000000000E+20
 20
1.000000000000000E+20
 30
1.000000000000000E+20
  9
$EXTMAX
 10
-1.000000000000000E+20
 20
-1.000000000000000E+20
 30
-1.000000000000000E+20
  9
$LIMMIN
 10
0.0
 20
0.0
  9
$LIMMAX
 10
12.0
 20
9.0
  9
$ORTHOMODE
 70
     0
  9
$REGENMODE
 70
     1
  9
$FILLMODE
 70
     1
  9
$QTEXTMODE
 70
     0
  9
$MIRRTEXT
 70
     1
  9
$DRAGMODE
 70
     2
  9
$LTSCALE
 40
1.0
  9
$OSMODE
 70
    37
  9
$ATTMODE
 70
     1
  9
$TEXTSIZE
 40
0.2
  9
$TRACEWID
 40
0.05
  9
$TEXTSTYLE
  7
STANDARD
  9
$CLAYER
  8
0
  9
$CELTYPE
  6
BYLAYER
  9
$CECOLOR
 62
   256
  9
$CELTSCALE
 40
1.0
  9
$DELOBJ
 70
     1
  9
$DISPSILH
 70
     0
  9
$DIMSCALE
 40
1.0
  9
$DIMASZ
 40
0.18
  9
$DIMEXO
 40
0.0625
  9
$DIMDLI
 40
0.38
  9
$DIMRND
 40
0.0
  9
$DIMDLE
 40
0.0
  9
$DIMEXE
 40
0.18
  9
$DIMTP
 40
0.0
  9
$DIMTM
 40
0.0
  9
$DIMTXT
 40
0.18
  9
$DIMCEN
 40
0.09
  9
$DIMTSZ
 40
0.0
  9
$DIMTOL
 70
     0
  9
$DIMLIM
 70
     0
  9
$DIMTIH
 70
     1
  9
$DIMTOH
 70
     1
  9
$DIMSE1
 70
     0
  9
$DIMSE2
 70
     0
  9
$DIMTAD
 70
     0
  9
$DIMZIN
 70
     0
  9
$DIMBLK
  1

  9
$DIMASO
 70
     1
  9
$DIMSHO
 70
     1
  9
$DIMPOST
  1

  9
$DIMAPOST
  1

  9
$DIMALT
 70
     0
  9
$DIMALTD
 70
     2
  9
$DIMALTF
 40
25.4
  9
$DIMLFAC
 40
1.0
  9
$DIMTOFL
 70
     0
  9
$DIMTVP
 40
0.0
  9
$DIMTIX
 70
     0
  9
$DIMSOXD
 70
     0
  9
$DIMSAH
 70
     0
  9
$DIMBLK1
  1

  9
$DIMBLK2
  1

  9
$DIMSTYLE
  2
STANDARD
  9
$DIMCLRD
 70
     0
  9
$DIMCLRE
 70
     0
  9
$DIMCLRT
 70
     0
  9
$DIMTFAC
 40
1.0
  9
$DIMGAP
 40
0.09
  9
$DIMJUST
 70
     0
  9
$DIMSD1
 70
     0
  9
$DIMSD2
 70
     0
  9
$DIMTOLJ
 70
     1
  9
$DIMTZIN
 70
     0
  9
$DIMALTZ
 70
     0
  9
$DIMALTTZ
 70
     0
  9
$DIMFIT
 70
     3
  9
$DIMUPT
 70
     0
  9
$DIMUNIT
 70
     2
  9
$DIMDEC
 70
     4
  9
$DIMTDEC
 70
     4
  9
$DIMALTU
 70
     2
  9
$DIMALTTD
 70
     2
  9
$DIMTXSTY
  7
STANDARD
  9
$DIMAUNIT
 70
     0
  9
$LUNITS
 70
     2
  9
$LUPREC
 70
     4
  9
$SKETCHINC
 40
0.1
  9
$FILLETRAD
 40
0.5
  9
$AUNITS
 70
     0
  9
$AUPREC
 70
     0
  9
$MENU
  1
.
  9
$ELEVATION
 40
0.0
  9
$PELEVATION
 40
0.0
  9
$THICKNESS
 40
0.0
  9
$LIMCHECK
 70
     0
  9
$CHAMFERA
 40
0.0
  9
$CHAMFERB
 40
0.0
  9
$CHAMFERC
 40
0.0
  9
$CHAMFERD
 40
0.0
  9
$SKPOLY
 70
     0
  9
$TDCREATE
 40
2458163.527922211
  9
$TDUPDATE
 40
2458163.527922431
  9
$TDINDWG
 40
0.0000000116
  9
$TDUSRTIMER
 40
0.0000000116
  9
$USRTIMER
 70
     1
  9
$ANGBASE
 50
0.0
  9
$ANGDIR
 70
     0
  9
$PDMODE
 70
     0
  9
$PDSIZE
 40
0.0
  9
$PLINEWID
 40
0.0
  9
$COORDS
 70
     1
  9
$SPLFRAME
 70
     0
  9
$SPLINETYPE
 70
     6
  9
$SPLINESEGS
 70
     8
  9
$ATTDIA
 70
     0
  9
$ATTREQ
 70
     1
  9
$HANDLING
 70
     1
  9
$HANDSEED
  5
365
  9
$SURFTAB1
 70
     6
  9
$SURFTAB2
 70
     6
  9
$SURFTYPE
 70
     6
  9
$SURFU
 70
     6
  9
$SURFV
 70
     6
  9
$UCSNAME
  2

  9
$UCSORG
 10
0.0
 20
0.0
 30
0.0
  9
$UCSXDIR
 10
1.0
 20
0.0
 30
0.0
  9
$UCSYDIR
 10
0.0
 20
1.0
 30
0.0
  9
$PUCSNAME
  2

  9
$PUCSORG
 10
0.0
 20
0.0
 30
0.0
  9
$PUCSXDIR
 10
1.0
 20
0.0
 30
0.0
  9
$PUCSYDIR
 10
0.0
 20
1.0
 30
0.0
  9
$USERI1
 70
     0
  9
$USERI2
 70
     0
  9
$USERI3
 70
     0
  9
$USERI4
 70
     0
  9
$USERI5
 70
     0
  9
$USERR1
 40
0.0
  9
$USERR2
 40
0.0
  9
$USERR3
 40
0.0
  9
$USERR4
 40
0.0
  9
$USERR5
 40
0.0
  9
$WORLDVIEW
 70
     1
  9
$SHADEDGE
 70
     3
  9
$SHADEDIF
 70
    70
  9
$TILEMODE
 70
     1
  9
$MAXACTVP
 70
    64
  9
$PINSBASE
 10
0.0
 20
0.0
 30
0.0
  9
$PLIMCHECK
 70
     0
  9
$PEXTMIN
 10
1.000000000000000E+20
 20
1.000000000000000E+20
 30
1.000000000000000E+20
  9
$PEXTMAX
 10
-1.000000000000000E+20
 20
-1.000000000000000E+20
 30
-1.000000000000000E+20
  9
$PLIMMIN
 10
0.0
 20
0.0
  9
$PLIMMAX
 10
12.0
 20
9.0
  9
$UNITMODE
 70
     0
  9
$VISRETAIN
 70
     1
  9
$PLINEGEN
 70
     0
  9
$PSLTSCALE
 70
     1
  9
$TREEDEPTH
 70
  3020
  9
$PICKSTYLE
 70
     1
  9
$CMLSTYLE
  2
STANDARD
  9
$CMLJUST
 70
     0
  9
$CMLSCALE
 40
1.0
  9
$PROXYGRAPHICS
 70
     1
  9
$MEASUREMENT
 70
     1
  0
ENDSEC
  0
SECTION
  2
CLASSES
  0
CLASS
  1
ACDBDICTIONARYWDFLT
  2
AcDbDictionaryWithDefault
  3
ObjectDBX Classes
 90
        0
280
     0
281
     0
  0
CLASS
  1
VISUALSTYLE
  2
AcDbVisualStyle
  3
ObjectDBX Classes
 90
     4095
280
     0
281
     0
  0
CLASS
  1
MATERIAL
  2
AcDbMaterial
  3
ObjectDBX Classes
 90
     1153
280
     0
281
     0
  0
CLASS
  1
SCALE
  2
AcDbScale
  3
ObjectDBX Classes
 90
     1153
280
     0
281
     0
  0
CLASS
  1
SUN
  2
AcDbSun
  3
SCENEOE
 90
     1153
280
     0
281
     0
  0
CLASS
  1
DICTIONARYVAR
  2
AcDbDictionaryVar
  3
ObjectDBX Classes
 90
        0
280
     0
281
     0
  0
CLASS
  1
XRECORD
  2
AcDbXrecord
  3
ObjectDBX Classes
 90
        0
280
     0
281
     0
  0
CLASS
  1
LWPOLYLINE
  2
AcDbPolyline
  3
ObjectDBX Classes
 90
        0
280
     0
281
     1
  0
CLASS
  1
HATCH
  2
AcDbHatch
  3
ObjectDBX Classes
 90
        0
280
     0
281
     1
  0
CLASS
  1
ACDBPLACEHOLDER
  2
AcDbPlaceHolder
  3
ObjectDBX Classes
 90
        0
280
     0
281
     0
  0
CLASS
  1
LAYOUT
  2
AcDbLayout
  3
ObjectDBX Classes
 90
        0
280
     0
281
     0
  0
ENDSEC
  0
SECTION
  2
TABLES
  0
TABLE
  2
VPORT
  5
8
102
{ACAD_XDICTIONARY
360
35B
102
}
330
0
100
AcDbSymbolTable
 70
     1
  0
VPORT
  5
29
330
8
100
AcDbSymbolTableRecord
100
AcDbViewportTableRecord
  2
*ACTIVE
 70
     0
 10
0.0
 20
0.0
 11
1.0
 21
1.0
 12
0.0
 22
0.0
 13
0.0
 23
0.0
 14
0.5
 24
0.5
 15
0.5
 25
0.5
 16
-245.2062567132495
 26
-132.9306471563294
 36
234.5313208199538
 17
69.20885458813561
 27
116.4641688147809
 37
-28.86275603849268
 40
3378.2
 41
1.3333
 42
50.0
 43
-339.0195463065568
 44
25035.58045369344
 50
0.0
 51
0.0
 71
     0
 72
   100
 73
     1
 74
     3
 75
     0
 76
     0
 77
     0
 78
     0
  0
ENDTAB
  0
TABLE
  2
LTYPE
  5
5
330
0
100
AcDbSymbolTable
 70
     1
  0
LTYPE
  5
14
330
5
100
AcDbSymbolTableRecord
100
AcDbLinetypeTableRecord
  2
BYBLOCK
 70
     0
  3

 72
    65
 73
     0
 40
0.0
  0
LTYPE
  5
15
330
5
100
AcDbSymbolTableRecord
100
AcDbLinetypeTableRecord
  2
BYLAYER
 70
     0
  3

 72
    65
 73
     0
 40
0.0
  0
LTYPE
  5
16
330
5
100
AcDbSymbolTableRecord
100
AcDbLinetypeTableRecord
  2
CONTINUOUS
 70
     0
  3
Solid line
 72
    65
 73
     0
 40
0.0
  0
ENDTAB
  0
TABLE
  2
LAYER
  5
2
330
0
100
AcDbSymbolTable
 70
     1
  0
LAYER
  5
10
330
2
100
AcDbSymbolTableRecord
100
AcDbLayerTableRecord
  2
0
 70
     0
 62
    13
  6
CONTINUOUS
  0
ENDTAB
  0
TABLE
  2
STYLE
  5
3
330
0
100
AcDbSymbolTable
 70
     3
  0
STYLE
  5
11
330
3
100
AcDbSymbolTableRecord
100
AcDbTextStyleTableRecord
  2
STANDARD
 70
     0
 40
0.0
 41
1.0
 50
0.0
 71
     0
 42
0.2
  3
txt
  4

  0
STYLE
  5
6A
330
3
100
AcDbSymbolTableRecord
100
AcDbTextStyleTableRecord
  2
ARIAL
 70
     0
 40
0.0
 41
1.0
 50
0.0
 71
     0
 42
0.2
  3
Arial
  4

1001
ACAD
1000
Arial
1071
       34
  0
STYLE
  5
6B
330
3
100
AcDbSymbolTableRecord
100
AcDbTextStyleTableRecord
  2
TAHOMA
 70
     0
 40
0.0
 41
1.0
 50
0.0
 71
     0
 42
0.2
  3
Tahoma
  4

1001
ACAD
1000
Tahoma
1071
       34
  0
ENDTAB
  0
TABLE
  2
VIEW
  5
6
330
0
100
AcDbSymbolTable
 70
     0
  0
ENDTAB
  0
TABLE
  2
UCS
  5
7
330
0
100
AcDbSymbolTable
 70
     0
  0
ENDTAB
  0
TABLE
  2
APPID
  5
9
330
0
100
AcDbSymbolTable
 70
     1
  0
APPID
  5
12
330
9
100
AcDbSymbolTableRecord
100
AcDbRegAppTableRecord
  2
ACAD
 70
     0
  0
ENDTAB
  0
TABLE
  2
DIMSTYLE
  5
A
330
0
100
AcDbSymbolTable
 70
     1
  0
DIMSTYLE
105
27
330
A
100
AcDbSymbolTableRecord
100
AcDbDimStyleTableRecord
  2
STANDARD
 70
     0
  3

  4

  5

  6

  7

 40
1.0
 41
0.18
 42
0.0625
 43
0.38
 44
0.18
 45
0.0
 46
0.0
 47
0.0
 48
0.0
140
0.18
141
0.09
142
0.0
143
25.4
144
1.0
145
0.0
146
1.0
147
0.09
 71
     0
 72
     0
 73
     1
 74
     1
 75
     0
 76
     0
 77
     0
 78
     0
170
     0
171
     2
172
     0
173
     0
174
     0
175
     0
176
     0
177
     0
178
     0
270
     2
271
     4
272
     4
273
     2
274
     2
340
11
275
     0
280
     0
281
     0
282
     0
283
     1
284
     0
285
     0
286
     0
287
     3
288
     0
  0
ENDTAB
  0
TABLE
  2
BLOCK_RECORD
  5
1
330
0
100
AcDbSymbolTable
 70
     1
  0
BLOCK_RECORD
  5
1F
330
1
100
AcDbSymbolTableRecord
100
AcDbBlockTableRecord
  2
*MODEL_SPACE
  0
BLOCK_RECORD
  5
1B
330
1
100
AcDbSymbolTableRecord
100
AcDbBlockTableRecord
  2
*PAPER_SPACE
  0
ENDTAB
  0
ENDSEC
  0
SECTION
  2
BLOCKS
  0
BLOCK
  5
20
330
1F
100
AcDbEntity
  8
0
100
AcDbBlockBegin
  2
*MODEL_SPACE
 70
     0
 10
0.0
 20
0.0
 30
0.0
  3
*MODEL_SPACE
  1

  0
ENDBLK
  5
21
330
1F
100
AcDbEntity
  8
0
100
AcDbBlockEnd
  0
BLOCK
  5
1C
330
1B
100
AcDbEntity
 67
     1
  8
0
100
AcDbBlockBegin
  2
*PAPER_SPACE
 70
     0
 10
0.0
 20
0.0
 30
0.0
  3
*PAPER_SPACE
  1

  0
ENDBLK
  5
1D
330
1B
100
AcDbEntity
 67
     1
  8
0
100
AcDbBlockEnd
  0
ENDSEC
  0
SECTION
  2
ENTITIES
  0
LINE
  5
6C
330
1F
100
AcDbEntity
  8
0
100
AcDbLine
 10
200.0
 20
230.0
 30
5.0
 11
200.0
 21
170.0000000000001
 31
5.0
  0
LINE
  5
6D
330
1F
100
AcDbEntity
  8
0
100
AcDbLine
 10
179.9999999999999
 20
230.0
 30
5.0
 11
200.0
 21
230.0
 31
5.0
  0
LINE
  5
6E
330
1F
100
AcDbEntity
  8
0
100
AcDbLine
 10
179.9999999999999
 20
230.0
 30
5.0
 11
179.9999999999999
 21
190.0000000000001
 31
5.0
  0
LINE
  5
6F
330
1F
100
AcDbEntity
  8
0
100
AcDbLine
 10
179.9999999999999
 20
190.0000000000001
 30
5.0
 11
155.0000000000001
 21
190.0000000000001
 31
5.0
  0
LINE
  5
70
330
1F
100
AcDbEntity
  8
0
100
AcDbLine
 10
155.0000000000001
 20
190.0000000000001
 30
5.0
 11
155.0000000000001
 21
230.0
 31
5.0
  0
LINE
  5
71
330
1F
100
AcDbEntity
  8
0
100
AcDbLine
 10
135.0
 20
230.0
 30
5.0
 11
155.0000000000001
 21
230.0
 31
5.0
  0
LINE
  5
72
330
1F
100
AcDbEntity
  8
0
100
AcDbLine
 10
135.0
 20
230.0
 30
5.0
 11
135.0
 21
190.0000000000001
 31
5.0
  0
LINE
  5
73
330
1F
100
AcDbEntity
  8
0
100
AcDbLine
 10
135.0
 20
190.0000000000001
 30
5.0
 11
109.9999999999999
 21
190.0000000000001
 31
5.0
  0
LINE
  5
74
330
1F
100
AcDbEntity
  8
0
100
AcDbLine
 10
109.9999999999999
 20
190.0000000000001
 30
5.0
 11
109.9999999999999
 21
230.0
 31
5.0
  0
LINE
  5
75
330
1F
100
AcDbEntity
  8
0
100
AcDbLine
 10
89.99999999999974
 20
230.0
 30
5.0
 11
109.9999999999999
 21
230.0
 31
5.0
  0
LINE
  5
76
330
1F
100
AcDbEntity
  8
0
100
AcDbLine
 10
89.99999999999974
 20
230.0
 30
5.0
 11
89.99999999999974
 21
190.0000000000001
 31
5.0
  0
LINE
  5
77
330
1F
100
AcDbEntity
  8
0
100
AcDbLine
 10
89.99999999999974
 20
190.0000000000001
 30
5.0
 11
65.00000000000001
 21
190.0000000000001
 31
5.0
  0
LINE
  5
78
330
1F
100
AcDbEntity
  8
0
100
AcDbLine
 10
65.00000000000001
 20
190.0000000000001
 30
5.0
 11
65.00000000000001
 21
230.0
 31
5.0
  0
LINE
  5
79
330
1F
100
AcDbEntity
  8
0
100
AcDbLine
 10
44.99999999999987
 20
230.0
 30
5.0
 11
65.00000000000001
 21
230.0
 31
5.0
  0
LINE
  5
7A
330
1F
100
AcDbEntity
  8
0
100
AcDbLine
 10
44.99999999999987
 20
230.0
 30
5.0
 11
44.99999999999987
 21
190.0000000000001
 31
5.0
  0
LINE
  5
7B
330
1F
100
AcDbEntity
  8
0
100
AcDbLine
 10
44.99999999999987
 20
190.0000000000001
 30
5.0
 11
19.99999999999978
 21
190.0000000000001
 31
5.0
  0
LINE
  5
7C
330
1F
100
AcDbEntity
  8
0
100
AcDbLine
 10
19.99999999999978
 20
190.0000000000001
 30
5.0
 11
20.00000000000014
 21
230.0
 31
5.0
  0
LINE
  5
7D
330
1F
100
AcDbEntity
  8
0
100
AcDbLine
 10
0.0
 20
230.0
 30
5.0
 11
20.00000000000014
 21
230.0
 31
5.0
  0
LINE
  5
7E
330
1F
100
AcDbEntity
  8
0
100
AcDbLine
 10
0.0
 20
170.0
 30
5.0
 11
0.0
 21
230.0
 31
5.0
  0
LINE
  5
7F
330
1F
100
AcDbEntity
  8
0
100
AcDbLine
 10
0.0
 20
170.0
 30
5.0
 11
25.00000000000009
 21
125.0000000000002
 31
5.0
  0
LINE
  5
80
330
1F
100
AcDbEntity
  8
0
100
AcDbLine
 10
25.00000000000009
 20
125.0000000000002
 30
5.0
 11
0.0
 21
60.0
 31
5.0
  0
LINE
  5
81
330
1F
100
AcDbEntity
  8
0
100
AcDbLine
 10
200.0
 20
60.0
 30
5.0
 11
200.0
 21
10.74409183759284
 31
4.999999999999996
  0
LINE
  5
82
330
1F
100
AcDbEntity
  8
0
100
AcDbLine
 10
174.9999999999999
 20
125.0
 30
5.0
 11
200.0
 21
60.0
 31
5.0
  0
LINE
  5
83
330
1F
100
AcDbEntity
  8
0
100
AcDbLine
 10
200.0
 20
170.0000000000001
 30
5.0
 11
174.9999999999999
 21
125.0
 31
5.0
  0
LINE
  5
84
330
1F
100
AcDbEntity
  8
0
100
AcDbLine
 10
0.0
 20
221.3397459621557
 30
0.0000000000000056
 11
0.0
 21
230.0
 31
5.0
  0
LINE
  5
85
330
1F
100
AcDbEntity
  8
0
100
AcDbLine
 10
20.00000000000014
 20
221.3397459621557
 30
0.0000000000000056
 11
20.00000000000014
 21
230.0
 31
5.0
  0
LINE
  5
86
330
1F
100
AcDbEntity
  8
0
100
AcDbLine
 10
0.0
 20
221.3397459621557
 30
0.0000000000000056
 11
20.00000000000014
 21
221.3397459621557
 31
0.0000000000000056
  0
LINE
  5
87
330
1F
100
AcDbEntity
  8
0
100
AcDbLine
 10
0.0
 20
60.0
 30
0.0
 11
0.0
 21
60.0
 31
5.0
  0
LINE
  5
88
330
1F
100
AcDbEntity
  8
0
100
AcDbLine
 10
19.99999999999978
 20
190.0000000000001
 30
0.0
 11
20.00000000000014
 21
221.3397459621557
 31
0.0000000000000056
  0
LINE
  5
89
330
1F
100
AcDbEntity
  8
0
100
AcDbLine
 10
44.99999999999987
 20
190.0000000000001
 30
0.0
 11
19.99999999999978
 21
190.0000000000001
 31
0.0
  0
LINE
  5
8A
330
1F
100
AcDbEntity
  8
0
100
AcDbLine
 10
44.99999999999987
 20
221.3397459621556
 30
-0.0000000000000032
 11
44.99999999999987
 21
190.0000000000001
 31
0.0
  0
LINE
  5
8B
330
1F
100
AcDbEntity
  8
0
100
AcDbLine
 10
44.99999999999987
 20
221.3397459621556
 30
-0.0000000000000032
 11
64.99999999999966
 21
221.3397459621556
 31
-0.0000000000000032
  0
LINE
  5
8C
330
1F
100
AcDbEntity
  8
0
100
AcDbLine
 10
65.00000000000001
 20
190.0000000000001
 30
0.0
 11
64.99999999999966
 21
221.3397459621556
 31
-0.0000000000000032
  0
LINE
  5
8D
330
1F
100
AcDbEntity
  8
0
100
AcDbLine
 10
89.99999999999974
 20
190.0000000000001
 30
0.0
 11
65.00000000000001
 21
190.0000000000001
 31
0.0
  0
LINE
  5
8E
330
1F
100
AcDbEntity
  8
0
100
AcDbLine
 10
89.99999999999974
 20
221.3397459621556
 30
-0.0000000000000039
 11
89.99999999999974
 21
190.0000000000001
 31
0.0
  0
LINE
  5
8F
330
1F
100
AcDbEntity
  8
0
100
AcDbLine
 10
89.99999999999974
 20
221.3397459621556
 30
-0.0000000000000039
 11
109.9999999999999
 21
221.3397459621556
 31
-0.0000000000000039
  0
LINE
  5
90
330
1F
100
AcDbEntity
  8
0
100
AcDbLine
 10
109.9999999999999
 20
190.0000000000001
 30
0.0
 11
109.9999999999999
 21
221.3397459621556
 31
-0.0000000000000039
  0
LINE
  5
91
330
1F
100
AcDbEntity
  8
0
100
AcDbLine
 10
135.0
 20
190.0000000000001
 30
0.0
 11
109.9999999999999
 21
190.0000000000001
 31
0.0
  0
LINE
  5
92
330
1F
100
AcDbEntity
  8
0
100
AcDbLine
 10
135.0
 20
221.3397459621557
 30
-0.0000000000000011
 11
135.0
 21
190.0000000000001
 31
0.0
  0
LINE
  5
93
330
1F
100
AcDbEntity
  8
0
100
AcDbLine
 10
135.0
 20
221.3397459621557
 30
-0.0000000000000011
 11
155.0000000000001
 21
221.3397459621557
 31
-0.0000000000000011
  0
LINE
  5
94
330
1F
100
AcDbEntity
  8
0
100
AcDbLine
 10
155.0000000000001
 20
190.0000000000001
 30
0.0
 11
155.0000000000001
 21
221.3397459621557
 31
-0.0000000000000011
  0
LINE
  5
95
330
1F
100
AcDbEntity
  8
0
100
AcDbLine
 10
179.9999999999999
 20
190.0000000000001
 30
0.0
 11
155.0000000000001
 21
190.0000000000001
 31
0.0
  0
LINE
  5
96
330
1F
100
AcDbEntity
  8
0
100
AcDbLine
 10
179.9999999999999
 20
221.3397459621557
 30
-0.0000000000000011
 11
179.9999999999999
 21
190.0000000000001
 31
0.0
  0
LINE
  5
97
330
1F
100
AcDbEntity
  8
0
100
AcDbLine
 10
179.9999999999999
 20
221.3397459621557
 30
-0.0000000000000011
 11
200.0
 21
221.3397459621557
 31
-0.0000000000000011
  0
LINE
  5
98
330
1F
100
AcDbEntity
  8
0
100
AcDbLine
 10
200.0
 20
221.3397459621557
 30
-0.0000000000000011
 11
200.0
 21
170.0000000000001
 31
0.0
  0
LINE
  5
99
330
1F
100
AcDbEntity
  8
0
100
AcDbLine
 10
200.0
 20
170.0000000000001
 30
0.0
 11
174.9999999999999
 21
125.0
 31
0.0
  0
LINE
  5
9A
330
1F
100
AcDbEntity
  8
0
100
AcDbLine
 10
174.9999999999999
 20
125.0
 30
0.0
 11
200.0
 21
60.0
 31
0.0
  0
LINE
  5
9B
330
1F
100
AcDbEntity
  8
0
100
AcDbLine
 10
200.0
 20
60.0
 30
0.0
 11
200.0
 21
15.74409183759283
 31
0.0000000000000006
  0
LINE
  5
9C
330
1F
100
AcDbEntity
  8
0
100
AcDbLine
 10
25.00000000000009
 20
125.0000000000002
 30
0.0
 11
0.0
 21
60.0
 31
0.0
  0
LINE
  5
9D
330
1F
100
AcDbEntity
  8
0
100
AcDbLine
 10
0.0
 20
170.0
 30
0.0
 11
25.00000000000009
 21
125.0000000000002
 31
0.0
  0
LINE
  5
9E
330
1F
100
AcDbEntity
  8
0
100
AcDbLine
 10
0.0
 20
170.0
 30
0.0
 11
0.0
 21
221.3397459621557
 31
0.0000000000000056
  0
LINE
  5
9F
330
1F
100
AcDbEntity
  8
0
100
AcDbLine
 10
200.0
 20
60.0
 30
0.0
 11
200.0
 21
60.0
 31
5.0
  0
LINE
  5
A0
330
1F
100
AcDbEntity
  8
0
100
AcDbLine
 10
179.9999999999999
 20
221.3397459621557
 30
-0.0000000000000011
 11
179.9999999999999
 21
230.0
 31
5.0
  0
LINE
  5
A1
330
1F
100
AcDbEntity
  8
0
100
AcDbLine
 10
200.0
 20
221.3397459621557
 30
-0.0000000000000011
 11
200.0
 21
230.0
 31
5.0
  0
LINE
  5
A2
330
1F
100
AcDbEntity
  8
0
100
AcDbLine
 10
135.0
 20
221.3397459621557
 30
-0.0000000000000011
 11
135.0
 21
230.0
 31
5.0
  0
LINE
  5
A3
330
1F
100
AcDbEntity
  8
0
100
AcDbLine
 10
135.0
 20
190.0000000000001
 30
0.0
 11
135.0
 21
190.0000000000001
 31
5.0
  0
LINE
  5
A4
330
1F
100
AcDbEntity
  8
0
100
AcDbLine
 10
89.99999999999974
 20
221.3397459621556
 30
-0.0000000000000039
 11
89.99999999999974
 21
230.0
 31
5.0
  0
LINE
  5
A5
330
1F
100
AcDbEntity
  8
0
100
AcDbLine
 10
109.9999999999999
 20
221.3397459621556
 30
-0.0000000000000039
 11
109.9999999999999
 21
230.0
 31
5.0
  0
LINE
  5
A6
330
1F
100
AcDbEntity
  8
0
100
AcDbLine
 10
19.99999999999978
 20
190.0000000000001
 30
0.0
 11
19.99999999999978
 21
190.0000000000001
 31
5.0
  0
LINE
  5
A7
330
1F
100
AcDbEntity
  8
0
100
AcDbLine
 10
44.99999999999987
 20
190.0000000000001
 30
0.0
 11
44.99999999999987
 21
190.0000000000001
 31
5.0
  0
LINE
  5
A8
330
1F
100
AcDbEntity
  8
0
100
AcDbLine
 10
89.99999999999974
 20
190.0000000000001
 30
0.0
 11
89.99999999999974
 21
190.0000000000001
 31
5.0
  0
LINE
  5
A9
330
1F
100
AcDbEntity
  8
0
100
AcDbLine
 10
44.99999999999987
 20
230.0
 30
5.0
 11
44.99999999999987
 21
221.3397459621556
 31
-0.0000000000000032
  0
LINE
  5
AA
330
1F
100
AcDbEntity
  8
0
100
AcDbLine
 10
65.00000000000001
 20
230.0
 30
5.0
 11
64.99999999999966
 21
221.3397459621556
 31
-0.0000000000000032
  0
LINE
  5
AB
330
1F
100
AcDbEntity
  8
0
100
AcDbLine
 10
0.0
 20
170.0
 30
0.0
 11
0.0
 21
170.0
 31
5.0
  0
LINE
  5
AC
330
1F
100
AcDbEntity
  8
0
100
AcDbLine
 10
155.0000000000001
 20
221.3397459621557
 30
-0.0000000000000011
 11
155.0000000000001
 21
230.0
 31
5.0
  0
LINE
  5
AD
330
1F
100
AcDbEntity
  8
0
100
AcDbLine
 10
174.9999999999999
 20
125.0
 30
0.0
 11
174.9999999999999
 21
125.0
 31
5.0
  0
LINE
  5
AE
330
1F
100
AcDbEntity
  8
0
100
AcDbLine
 10
25.00000000000009
 20
125.0000000000002
 30
0.0
 11
25.00000000000009
 21
125.0000000000002
 31
5.0
  0
LINE
  5
AF
330
1F
100
AcDbEntity
  8
0
100
AcDbLine
 10
65.00000000000001
 20
190.0000000000001
 30
0.0
 11
65.00000000000001
 21
190.0000000000001
 31
5.0
  0
LINE
  5
B0
330
1F
100
AcDbEntity
  8
0
100
AcDbLine
 10
179.9999999999999
 20
190.0000000000001
 30
0.0
 11
179.9999999999999
 21
190.0000000000001
 31
5.0
  0
LINE
  5
B1
330
1F
100
AcDbEntity
  8
0
100
AcDbLine
 10
109.9999999999999
 20
190.0000000000001
 30
0.0
 11
109.9999999999999
 21
190.0000000000001
 31
5.0
  0
LINE
  5
B2
330
1F
100
AcDbEntity
  8
0
100
AcDbLine
 10
155.0000000000001
 20
190.0000000000001
 30
0.0
 11
155.0000000000001
 21
190.0000000000001
 31
5.0
  0
LINE
  5
B3
330
1F
100
AcDbEntity
  8
0
100
AcDbLine
 10
200.0
 20
170.0000000000001
 30
0.0
 11
200.0
 21
170.0000000000001
 31
5.0
  0
LINE
  5
B4
330
1F
100
AcDbEntity
  8
0
100
AcDbLine
 10
0.000000000000361
 20
10.74409183759284
 30
5.000000000000002
 11
0.0
 21
60.0
 31
5.0
  0
LINE
  5
B5
330
1F
100
AcDbEntity
  8
0
100
AcDbLine
 10
0.000000000000361
 20
15.74409183759283
 30
0.0000000000000055
 11
0.0
 21
60.0
 31
0.0
  0
LINE
  5
B6
330
1F
100
AcDbEntity
  8
0
100
AcDbLine
 10
175.2516101882752
 20
11.0536624503803
 30
0.000000000000002
 11
166.9507480356056
 21
9.78529823297279
 31
0.000000000000002
  0
LINE
  5
B7
330
1F
100
AcDbEntity
  8
0
100
AcDbLine
 10
166.9507480356056
 20
9.78529823297279
 30
0.000000000000002
 11
166.9507480356056
 21
4.7852982329728
 31
4.999999999999998
  0
LINE
  5
B8
330
1F
100
AcDbEntity
  8
0
100
AcDbLine
 10
175.2516101882752
 20
11.0536624503803
 30
0.000000000000002
 11
175.2516101882752
 21
6.053662450380311
 31
4.999999999999998
  0
LINE
  5
B9
330
1F
100
AcDbEntity
  8
0
100
AcDbLine
 10
183.5285272988675
 20
12.46989103715715
 30
0.0000000000000013
 11
175.2516101882752
 21
11.0536624503803
 31
0.000000000000002
  0
LINE
  5
BA
330
1F
100
AcDbEntity
  8
0
100
AcDbLine
 10
183.5285272988675
 20
12.46989103715715
 30
0.0000000000000013
 11
183.5285272988675
 21
7.469891037157159
 31
4.999999999999997
  0
LINE
  5
BB
330
1F
100
AcDbEntity
  8
0
100
AcDbLine
 10
191.7788656545898
 20
14.03353334974882
 30
0.0000000000000013
 11
183.5285272988675
 21
12.46989103715715
 31
0.0000000000000013
  0
LINE
  5
BC
330
1F
100
AcDbEntity
  8
0
100
AcDbLine
 10
191.7788656545898
 20
14.03353334974882
 30
0.0000000000000013
 11
191.7788656545898
 21
9.033533349748826
 31
4.999999999999997
  0
LINE
  5
BD
330
1F
100
AcDbEntity
  8
0
100
AcDbLine
 10
166.9507480356056
 20
9.78529823297279
 30
0.000000000000002
 11
158.5861003604666
 21
8.66025403784438
 31
0.0000000000000019
  0
LINE
  5
BE
330
1F
100
AcDbEntity
  8
0
100
AcDbLine
 10
158.5861003604666
 20
8.66025403784438
 30
0.0000000000000019
 11
158.6285821729581
 21
3.66520197808664
 31
4.999999999999998
  0
LINE
  5
BF
330
1F
100
AcDbEntity
  8
0
100
AcDbLine
 10
158.5861003604666
 20
8.66025403784438
 30
0.0000000000000019
 11
150.2877607112674
 21
7.693730100048196
 31
0.0000000000000027
  0
LINE
  5
C0
330
1F
100
AcDbEntity
  8
0
100
AcDbLine
 10
150.2877607112674
 20
7.693730100048196
 30
0.0000000000000027
 11
150.2877607112674
 21
2.693730100048205
 31
4.999999999999998
  0
LINE
  5
C1
330
1F
100
AcDbEntity
  8
0
100
AcDbLine
 10
150.2877607112674
 20
7.693730100048196
 30
0.0000000000000027
 11
141.9309376976735
 21
6.871191720947275
 31
0.0000000000000027
  0
LINE
  5
C2
330
1F
100
AcDbEntity
  8
0
100
AcDbLine
 10
141.9309376976735
 20
6.871191720947275
 30
0.0000000000000027
 11
141.9309376976735
 21
1.871191720947284
 31
4.999999999999998
  0
LINE
  5
C3
330
1F
100
AcDbEntity
  8
0
100
AcDbLine
 10
200.0
 20
15.74409183759283
 30
0.0000000000000006
 11
191.7788656545898
 21
14.03353334974882
 31
0.0000000000000013
  0
LINE
  5
C4
330
1F
100
AcDbEntity
  8
0
100
AcDbLine
 10
200.0
 20
10.74409183759284
 30
4.999999999999996
 11
200.0
 21
15.74409183759283
 31
0.0000000000000006
  0
LINE
  5
C5
330
1F
100
AcDbEntity
  8
0
100
AcDbLine
 10
116.7910711140514
 20
5.29955745458729
 30
0.0000000000000041
 11
108.3968714981495
 21
5.074895321564576
 31
0.0000000000000041
  0
LINE
  5
C6
330
1F
100
AcDbEntity
  8
0
100
AcDbLine
 10
108.3968714981495
 20
5.074895321564576
 30
0.0000000000000041
 11
108.3968714981495
 21
0.0748953215645853
 31
5.0
  0
LINE
  5
C7
330
1F
100
AcDbEntity
  8
0
100
AcDbLine
 10
116.7910711140514
 20
5.29955745458729
 30
0.0000000000000041
 11
116.7910711140514
 21
0.2995574545872992
 31
5.0
  0
LINE
  5
C8
330
1F
100
AcDbEntity
  8
0
100
AcDbLine
 10
91.60312850185117
 20
5.074895321564644
 30
0.0000000000000048
 11
83.20892888594898
 21
5.29955745458729
 31
0.0000000000000048
  0
LINE
  5
C9
330
1F
100
AcDbEntity
  8
0
100
AcDbLine
 10
83.20892888594898
 20
5.29955745458729
 30
0.0000000000000048
 11
83.20892888594898
 21
0.2995574545872992
 31
5.000000000000001
  0
LINE
  5
CA
330
1F
100
AcDbEntity
  8
0
100
AcDbLine
 10
91.60312850185117
 20
5.074895321564644
 30
0.0000000000000048
 11
91.60312850185117
 21
0.074895321564653
 31
5.000000000000001
  0
LINE
  5
CB
330
1F
100
AcDbEntity
  8
0
100
AcDbLine
 10
16.47147270113283
 20
12.46989103715715
 30
0.0000000000000055
 11
8.221134345410581
 21
14.03353334974881
 31
0.0000000000000055
  0
LINE
  5
CC
330
1F
100
AcDbEntity
  8
0
100
AcDbLine
 10
8.221134345410581
 20
14.03353334974881
 30
0.0000000000000055
 11
8.221134345410581
 21
9.033533349748815
 31
5.000000000000002
  0
LINE
  5
CD
330
1F
100
AcDbEntity
  8
0
100
AcDbLine
 10
16.47147270113283
 20
12.46989103715715
 30
0.0000000000000055
 11
16.47147270113283
 21
7.469891037157159
 31
5.000000000000002
  0
LINE
  5
CE
330
1F
100
AcDbEntity
  8
0
100
AcDbLine
 10
125.1799278156511
 20
5.673914911637818
 30
0.0000000000000034
 11
116.7910711140514
 21
5.29955745458729
 31
0.0000000000000041
  0
LINE
  5
CF
330
1F
100
AcDbEntity
  8
0
100
AcDbLine
 10
125.1799278156511
 20
5.673914911637818
 30
0.0000000000000034
 11
125.1799278156511
 21
0.6739149116378264
 31
4.999999999999999
  0
LINE
  5
D0
330
1F
100
AcDbEntity
  8
0
100
AcDbLine
 10
83.20892888594898
 20
5.29955745458729
 30
0.0000000000000048
 11
74.8200721843493
 21
5.673914911637874
 31
0.0000000000000048
  0
LINE
  5
D1
330
1F
100
AcDbEntity
  8
0
100
AcDbLine
 10
74.8200721843493
 20
5.673914911637874
 30
0.0000000000000048
 11
74.8200721843493
 21
0.6739149116378828
 31
5.000000000000001
  0
LINE
  5
D2
330
1F
100
AcDbEntity
  8
0
100
AcDbLine
 10
74.8200721843493
 20
5.673914911637874
 30
0.0000000000000048
 11
66.43922772899289
 21
6.197848572274403
 31
0.0000000000000048
  0
LINE
  5
D3
330
1F
100
AcDbEntity
  8
0
100
AcDbLine
 10
66.43922772899289
 20
6.197848572274403
 30
0.0000000000000048
 11
66.43922772899289
 21
1.197848572274413
 31
5.000000000000001
  0
LINE
  5
D4
330
1F
100
AcDbEntity
  8
0
100
AcDbLine
 10
49.71223928873333
 20
7.693730100048252
 30
0.0000000000000055
 11
41.41389963953452
 21
8.66025403784438
 31
0.0000000000000033
  0
LINE
  5
D5
330
1F
100
AcDbEntity
  8
0
100
AcDbLine
 10
41.41389963953452
 20
8.66025403784438
 30
0.0000000000000033
 11
41.37141782704222
 21
3.665201978086697
 31
5.000000000000002
  0
LINE
  5
D6
330
1F
100
AcDbEntity
  8
0
100
AcDbLine
 10
49.71223928873333
 20
7.693730100048252
 30
0.0000000000000055
 11
49.71223928873333
 21
2.693730100048261
 31
5.000000000000002
  0
LINE
  5
D7
330
1F
100
AcDbEntity
  8
0
100
AcDbLine
 10
8.221134345410581
 20
14.03353334974881
 30
0.0000000000000055
 11
0.000000000000361
 21
15.74409183759283
 31
0.0000000000000055
  0
LINE
  5
D8
330
1F
100
AcDbEntity
  8
0
100
AcDbLine
 10
0.000000000000361
 20
15.74409183759283
 30
0.0000000000000055
 11
0.000000000000361
 21
10.74409183759284
 31
5.000000000000002
  0
ARC
  5
D9
330
1F
100
AcDbEntity
  8
0
100
AcDbCircle
 10
100.0000000000004
 20
470.7440918375908
 30
4.999999999999947
 40
470.7440918375917
100
AcDbArc
 50
257.7352262721076
 51
282.2647737278924
  0
LINE
  5
DA
330
1F
100
AcDbEntity
  8
0
100
AcDbLine
 10
141.9309376976735
 20
6.871191720947275
 30
0.0000000000000027
 11
133.5607722710075
 21
6.197848572274347
 31
0.0000000000000034
  0
LINE
  5
DB
330
1F
100
AcDbEntity
  8
0
100
AcDbLine
 10
133.5607722710075
 20
6.197848572274347
 30
0.0000000000000034
 11
133.5607722710075
 21
1.197848572274356
 31
4.999999999999999
  0
LINE
  5
DC
330
1F
100
AcDbEntity
  8
0
100
AcDbLine
 10
133.5607722710075
 20
6.197848572274347
 30
0.0000000000000034
 11
125.1799278156511
 21
5.673914911637818
 31
0.0000000000000034
  0
LINE
  5
DD
330
1F
100
AcDbEntity
  8
0
100
AcDbLine
 10
100.0
 20
4.999999999999991
 30
0.0000000000000041
 11
91.60312850185117
 21
5.074895321564644
 31
0.0000000000000048
  0
LINE
  5
DE
330
1F
100
AcDbEntity
  8
0
100
AcDbLine
 10
100.0
 20
4.999999999999991
 30
0.0000000000000041
 11
100.0
 21
0.0
 31
5.0
  0
LINE
  5
DF
330
1F
100
AcDbEntity
  8
0
100
AcDbLine
 10
41.41389963953452
 20
8.66025403784438
 30
0.0000000000000033
 11
33.04925196439479
 21
9.78529823297279
 31
0.0000000000000055
  0
LINE
  5
E0
330
1F
100
AcDbEntity
  8
0
100
AcDbLine
 10
33.04925196439479
 20
9.78529823297279
 30
0.0000000000000055
 11
33.04925196439479
 21
4.7852982329728
 31
5.000000000000002
  0
LINE
  5
E1
330
1F
100
AcDbEntity
  8
0
100
AcDbLine
 10
58.06906230232683
 20
6.871191720947298
 30
0.0000000000000048
 11
49.71223928873333
 21
7.693730100048252
 31
0.0000000000000055
  0
LINE
  5
E2
330
1F
100
AcDbEntity
  8
0
100
AcDbLine
 10
58.06906230232683
 20
6.871191720947298
 30
0.0000000000000048
 11
58.06906230232683
 21
1.871191720947307
 31
5.000000000000001
  0
LINE
  5
E3
330
1F
100
AcDbEntity
  8
0
100
AcDbLine
 10
108.3968714981495
 20
5.074895321564576
 30
0.0000000000000041
 11
100.0
 21
4.999999999999991
 31
0.0000000000000041
  0
LINE
  5
E4
330
1F
100
AcDbEntity
  8
0
100
AcDbLine
 10
33.04925196439479
 20
9.78529823297279
 30
0.0000000000000055
 11
24.74838981172514
 21
11.05366245038032
 31
0.0000000000000055
  0
LINE
  5
E5
330
1F
100
AcDbEntity
  8
0
100
AcDbLine
 10
24.74838981172514
 20
11.05366245038032
 30
0.0000000000000055
 11
24.74838981172514
 21
6.053662450380333
 31
5.000000000000002
  0
LINE
  5
E6
330
1F
100
AcDbEntity
  8
0
100
AcDbLine
 10
24.74838981172514
 20
11.05366245038032
 30
0.0000000000000055
 11
16.47147270113283
 21
12.46989103715715
 31
0.0000000000000055
  0
LINE
  5
E7
330
1F
100
AcDbEntity
  8
0
100
AcDbLine
 10
66.43922772899289
 20
6.197848572274403
 30
0.0000000000000048
 11
58.06906230232683
 21
6.871191720947298
 31
0.0000000000000048
  0
POLYLINE
  5
E8
330
1F
100
AcDbEntity
  8
0
100
AcDbPolyFaceMesh
 66
     1
 10
0.0
 20
0.0
 30
0.0
 70
    64
 71
     4
 72
     2
  0
VERTEX
  5
E9
330
E8
100
AcDbEntity
  8
0
100
AcDbVertex
100
AcDbPolyFaceMeshVertex
 10
20.00000000000014
 20
230.0
 30
5.0
 70
   192
  0
VERTEX
  5
EA
330
E8
100
AcDbEntity
  8
0
100
AcDbVertex
100
AcDbPolyFaceMeshVertex
 10
0.0
 20
221.3397459621557
 30
0.0000000000000056
 70
   192
  0
VERTEX
  5
EB
330
E8
100
AcDbEntity
  8
0
100
AcDbVertex
100
AcDbPolyFaceMeshVertex
 10
0.0
 20
230.0
 30
5.0
 70
   192
  0
VERTEX
  5
EC
330
E8
100
AcDbEntity
  8
0
100
AcDbVertex
100
AcDbPolyFaceMeshVertex
 10
20.00000000000014
 20
221.3397459621557
 30
0.0000000000000056
 70
   192
  0
VERTEX
  5
ED
330
E8
100
AcDbEntity
  8
0
100
AcDbFaceRecord
 10
0.0
 20
0.0
 30
0.0
 70
   128
 71
    -1
 72
     2
 73
     3
  0
VERTEX
  5
EE
330
E8
100
AcDbEntity
  8
0
100
AcDbFaceRecord
 10
0.0
 20
0.0
 30
0.0
 70
   128
 71
    -2
 72
     1
 73
     4
  0
SEQEND
  5
EF
330
E8
100
AcDbEntity
  8
0
  0
POLYLINE
  5
F0
330
1F
100
AcDbEntity
  8
0
100
AcDbPolyFaceMesh
 66
     1
 10
0.0
 20
0.0
 30
0.0
 70
    64
 71
     4
 72
     2
  0
VERTEX
  5
F1
330
F0
100
AcDbEntity
  8
0
100
AcDbVertex
100
AcDbPolyFaceMeshVertex
 10
0.0
 20
60.0
 30
5.0
 70
   192
  0
VERTEX
  5
F2
330
F0
100
AcDbEntity
  8
0
100
AcDbVertex
100
AcDbPolyFaceMeshVertex
 10
0.000000000000361
 20
15.74409183759283
 30
0.0000000000000055
 70
   192
  0
VERTEX
  5
F3
330
F0
100
AcDbEntity
  8
0
100
AcDbVertex
100
AcDbPolyFaceMeshVertex
 10
0.000000000000361
 20
10.74409183759284
 30
5.000000000000002
 70
   192
  0
VERTEX
  5
F4
330
F0
100
AcDbEntity
  8
0
100
AcDbVertex
100
AcDbPolyFaceMeshVertex
 10
0.0
 20
60.0
 30
0.0
 70
   192
  0
VERTEX
  5
F5
330
F0
100
AcDbEntity
  8
0
100
AcDbFaceRecord
 10
0.0
 20
0.0
 30
0.0
 70
   128
 71
    -1
 72
     2
 73
     3
  0
VERTEX
  5
F6
330
F0
100
AcDbEntity
  8
0
100
AcDbFaceRecord
 10
0.0
 20
0.0
 30
0.0
 70
   128
 71
    -2
 72
     1
 73
     4
  0
SEQEND
  5
F7
330
F0
100
AcDbEntity
  8
0
  0
POLYLINE
  5
F8
330
1F
100
AcDbEntity
  8
0
100
AcDbPolyFaceMesh
 66
     1
 10
0.0
 20
0.0
 30
0.0
 70
    64
 71
     4
 72
     2
  0
VERTEX
  5
F9
330
F8
100
AcDbEntity
  8
0
100
AcDbVertex
100
AcDbPolyFaceMeshVertex
 10
200.0
 20
15.74409183759283
 30
0.0000000000000006
 70
   192
  0
VERTEX
  5
FA
330
F8
100
AcDbEntity
  8
0
100
AcDbVertex
100
AcDbPolyFaceMeshVertex
 10
200.0
 20
60.0
 30
5.0
 70
   192
  0
VERTEX
  5
FB
330
F8
100
AcDbEntity
  8
0
100
AcDbVertex
100
AcDbPolyFaceMeshVertex
 10
200.0
 20
10.74409183759284
 30
4.999999999999996
 70
   192
  0
VERTEX
  5
FC
330
F8
100
AcDbEntity
  8
0
100
AcDbVertex
100
AcDbPolyFaceMeshVertex
 10
200.0
 20
60.0
 30
0.0
 70
   192
  0
VERTEX
  5
FD
330
F8
100
AcDbEntity
  8
0
100
AcDbFaceRecord
 10
0.0
 20
0.0
 30
0.0
 70
   128
 71
    -1
 72
     2
 73
     3
  0
VERTEX
  5
FE
330
F8
100
AcDbEntity
  8
0
100
AcDbFaceRecord
 10
0.0
 20
0.0
 30
0.0
 70
   128
 71
    -2
 72
     1
 73
     4
  0
SEQEND
  5
FF
330
F8
100
AcDbEntity
  8
0
  0
POLYLINE
  5
100
330
1F
100
AcDbEntity
  8
0
100
AcDbPolyFaceMesh
 66
     1
 10
0.0
 20
0.0
 30
0.0
 70
    64
 71
     4
 72
     2
  0
VERTEX
  5
101
330
100
100
AcDbEntity
  8
0
100
AcDbVertex
100
AcDbPolyFaceMeshVertex
 10
200.0
 20
230.0
 30
5.0
 70
   192
  0
VERTEX
  5
102
330
100
100
AcDbEntity
  8
0
100
AcDbVertex
100
AcDbPolyFaceMeshVertex
 10
179.9999999999999
 20
221.3397459621557
 30
-0.0000000000000011
 70
   192
  0
VERTEX
  5
103
330
100
100
AcDbEntity
  8
0
100
AcDbVertex
100
AcDbPolyFaceMeshVertex
 10
179.9999999999999
 20
230.0
 30
5.0
 70
   192
  0
VERTEX
  5
104
330
100
100
AcDbEntity
  8
0
100
AcDbVertex
100
AcDbPolyFaceMeshVertex
 10
200.0
 20
221.3397459621557
 30
-0.0000000000000011
 70
   192
  0
VERTEX
  5
105
330
100
100
AcDbEntity
  8
0
100
AcDbFaceRecord
 10
0.0
 20
0.0
 30
0.0
 70
   128
 71
    -1
 72
     2
 73
     3
  0
VERTEX
  5
106
330
100
100
AcDbEntity
  8
0
100
AcDbFaceRecord
 10
0.0
 20
0.0
 30
0.0
 70
   128
 71
    -2
 72
     1
 73
     4
  0
SEQEND
  5
107
330
100
100
AcDbEntity
  8
0
  0
POLYLINE
  5
108
330
1F
100
AcDbEntity
  8
0
100
AcDbPolyFaceMesh
 66
     1
 10
0.0
 20
0.0
 30
0.0
 70
    64
 71
     4
 72
     2
  0
VERTEX
  5
109
330
108
100
AcDbEntity
  8
0
100
AcDbVertex
100
AcDbPolyFaceMeshVertex
 10
135.0
 20
230.0
 30
5.0
 70
   192
  0
VERTEX
  5
10A
330
108
100
AcDbEntity
  8
0
100
AcDbVertex
100
AcDbPolyFaceMeshVertex
 10
135.0
 20
190.0000000000001
 30
0.0
 70
   192
  0
VERTEX
  5
10B
330
108
100
AcDbEntity
  8
0
100
AcDbVertex
100
AcDbPolyFaceMeshVertex
 10
135.0
 20
190.0000000000001
 30
5.0
 70
   192
  0
VERTEX
  5
10C
330
108
100
AcDbEntity
  8
0
100
AcDbVertex
100
AcDbPolyFaceMeshVertex
 10
135.0
 20
221.3397459621557
 30
-0.0000000000000011
 70
   192
  0
VERTEX
  5
10D
330
108
100
AcDbEntity
  8
0
100
AcDbFaceRecord
 10
0.0
 20
0.0
 30
0.0
 70
   128
 71
    -1
 72
     2
 73
     3
  0
VERTEX
  5
10E
330
108
100
AcDbEntity
  8
0
100
AcDbFaceRecord
 10
0.0
 20
0.0
 30
0.0
 70
   128
 71
    -2
 72
     1
 73
     4
  0
SEQEND
  5
10F
330
108
100
AcDbEntity
  8
0
  0
POLYLINE
  5
110
330
1F
100
AcDbEntity
  8
0
100
AcDbPolyFaceMesh
 66
     1
 10
0.0
 20
0.0
 30
0.0
 70
    64
 71
     4
 72
     2
  0
VERTEX
  5
111
330
110
100
AcDbEntity
  8
0
100
AcDbVertex
100
AcDbPolyFaceMeshVertex
 10
109.9999999999999
 20
230.0
 30
5.0
 70
   192
  0
VERTEX
  5
112
330
110
100
AcDbEntity
  8
0
100
AcDbVertex
100
AcDbPolyFaceMeshVertex
 10
89.99999999999974
 20
221.3397459621556
 30
-0.0000000000000039
 70
   192
  0
VERTEX
  5
113
330
110
100
AcDbEntity
  8
0
100
AcDbVertex
100
AcDbPolyFaceMeshVertex
 10
89.99999999999974
 20
230.0
 30
5.0
 70
   192
  0
VERTEX
  5
114
330
110
100
AcDbEntity
  8
0
100
AcDbVertex
100
AcDbPolyFaceMeshVertex
 10
109.9999999999999
 20
221.3397459621556
 30
-0.0000000000000039
 70
   192
  0
VERTEX
  5
115
330
110
100
AcDbEntity
  8
0
100
AcDbFaceRecord
 10
0.0
 20
0.0
 30
0.0
 70
   128
 71
    -1
 72
     2
 73
     3
  0
VERTEX
  5
116
330
110
100
AcDbEntity
  8
0
100
AcDbFaceRecord
 10
0.0
 20
0.0
 30
0.0
 70
   128
 71
    -2
 72
     1
 73
     4
  0
SEQEND
  5
117
330
110
100
AcDbEntity
  8
0
  0
POLYLINE
  5
118
330
1F
100
AcDbEntity
  8
0
100
AcDbPolyFaceMesh
 66
     1
 10
0.0
 20
0.0
 30
0.0
 70
    64
 71
     4
 72
     2
  0
VERTEX
  5
119
330
118
100
AcDbEntity
  8
0
100
AcDbVertex
100
AcDbPolyFaceMeshVertex
 10
19.99999999999978
 20
190.0000000000001
 30
5.0
 70
   192
  0
VERTEX
  5
11A
330
118
100
AcDbEntity
  8
0
100
AcDbVertex
100
AcDbPolyFaceMeshVertex
 10
44.99999999999987
 20
190.0000000000001
 30
0.0
 70
   192
  0
VERTEX
  5
11B
330
118
100
AcDbEntity
  8
0
100
AcDbVertex
100
AcDbPolyFaceMeshVertex
 10
19.99999999999978
 20
190.0000000000001
 30
0.0
 70
   192
  0
VERTEX
  5
11C
330
118
100
AcDbEntity
  8
0
100
AcDbVertex
100
AcDbPolyFaceMeshVertex
 10
44.99999999999987
 20
190.0000000000001
 30
5.0
 70
   192
  0
VERTEX
  5
11D
330
118
100
AcDbEntity
  8
0
100
AcDbFaceRecord
 10
0.0
 20
0.0
 30
0.0
 70
   128
 71
    -1
 72
     2
 73
     3
  0
VERTEX
  5
11E
330
118
100
AcDbEntity
  8
0
100
AcDbFaceRecord
 10
0.0
 20
0.0
 30
0.0
 70
   128
 71
    -2
 72
     1
 73
     4
  0
SEQEND
  5
11F
330
118
100
AcDbEntity
  8
0
  0
POLYLINE
  5
120
330
1F
100
AcDbEntity
  8
0
100
AcDbPolyFaceMesh
 66
     1
 10
0.0
 20
0.0
 30
0.0
 70
    64
 71
     4
 72
     2
  0
VERTEX
  5
121
330
120
100
AcDbEntity
  8
0
100
AcDbVertex
100
AcDbPolyFaceMeshVertex
 10
89.99999999999974
 20
230.0
 30
5.0
 70
   192
  0
VERTEX
  5
122
330
120
100
AcDbEntity
  8
0
100
AcDbVertex
100
AcDbPolyFaceMeshVertex
 10
89.99999999999974
 20
190.0000000000001
 30
0.0
 70
   192
  0
VERTEX
  5
123
330
120
100
AcDbEntity
  8
0
100
AcDbVertex
100
AcDbPolyFaceMeshVertex
 10
89.99999999999974
 20
190.0000000000001
 30
5.0
 70
   192
  0
VERTEX
  5
124
330
120
100
AcDbEntity
  8
0
100
AcDbVertex
100
AcDbPolyFaceMeshVertex
 10
89.99999999999974
 20
221.3397459621556
 30
-0.0000000000000039
 70
   192
  0
VERTEX
  5
125
330
120
100
AcDbEntity
  8
0
100
AcDbFaceRecord
 10
0.0
 20
0.0
 30
0.0
 70
   128
 71
    -1
 72
     2
 73
     3
  0
VERTEX
  5
126
330
120
100
AcDbEntity
  8
0
100
AcDbFaceRecord
 10
0.0
 20
0.0
 30
0.0
 70
   128
 71
    -2
 72
     1
 73
     4
  0
SEQEND
  5
127
330
120
100
AcDbEntity
  8
0
  0
POLYLINE
  5
128
330
1F
100
AcDbEntity
  8
0
100
AcDbPolyFaceMesh
 66
     1
 10
0.0
 20
0.0
 30
0.0
 70
    64
 71
     4
 72
     2
  0
VERTEX
  5
129
330
128
100
AcDbEntity
  8
0
100
AcDbVertex
100
AcDbPolyFaceMeshVertex
 10
65.00000000000001
 20
230.0
 30
5.0
 70
   192
  0
VERTEX
  5
12A
330
128
100
AcDbEntity
  8
0
100
AcDbVertex
100
AcDbPolyFaceMeshVertex
 10
44.99999999999987
 20
221.3397459621556
 30
-0.0000000000000032
 70
   192
  0
VERTEX
  5
12B
330
128
100
AcDbEntity
  8
0
100
AcDbVertex
100
AcDbPolyFaceMeshVertex
 10
44.99999999999987
 20
230.0
 30
5.0
 70
   192
  0
VERTEX
  5
12C
330
128
100
AcDbEntity
  8
0
100
AcDbVertex
100
AcDbPolyFaceMeshVertex
 10
64.99999999999966
 20
221.3397459621556
 30
-0.0000000000000032
 70
   192
  0
VERTEX
  5
12D
330
128
100
AcDbEntity
  8
0
100
AcDbFaceRecord
 10
0.0
 20
0.0
 30
0.0
 70
   128
 71
    -1
 72
     2
 73
     3
  0
VERTEX
  5
12E
330
128
100
AcDbEntity
  8
0
100
AcDbFaceRecord
 10
0.0
 20
0.0
 30
0.0
 70
   128
 71
    -2
 72
     1
 73
     4
  0
SEQEND
  5
12F
330
128
100
AcDbEntity
  8
0
  0
POLYLINE
  5
130
330
1F
100
AcDbEntity
  8
0
100
AcDbPolyFaceMesh
 66
     1
 10
0.0
 20
0.0
 30
0.0
 70
    64
 71
     4
 72
     2
  0
VERTEX
  5
131
330
130
100
AcDbEntity
  8
0
100
AcDbVertex
100
AcDbPolyFaceMeshVertex
 10
20.00000000000014
 20
221.3397459621557
 30
0.0000000000000056
 70
   192
  0
VERTEX
  5
132
330
130
100
AcDbEntity
  8
0
100
AcDbVertex
100
AcDbPolyFaceMeshVertex
 10
19.99999999999978
 20
190.0000000000001
 30
5.0
 70
   192
  0
VERTEX
  5
133
330
130
100
AcDbEntity
  8
0
100
AcDbVertex
100
AcDbPolyFaceMeshVertex
 10
19.99999999999978
 20
190.0000000000001
 30
0.0
 70
   192
  0
VERTEX
  5
134
330
130
100
AcDbEntity
  8
0
100
AcDbVertex
100
AcDbPolyFaceMeshVertex
 10
20.00000000000014
 20
230.0
 30
5.0
 70
   192
  0
VERTEX
  5
135
330
130
100
AcDbEntity
  8
0
100
AcDbFaceRecord
 10
0.0
 20
0.0
 30
0.0
 70
   128
 71
    -1
 72
     2
 73
     3
  0
VERTEX
  5
136
330
130
100
AcDbEntity
  8
0
100
AcDbFaceRecord
 10
0.0
 20
0.0
 30
0.0
 70
   128
 71
    -2
 72
     1
 73
     4
  0
SEQEND
  5
137
330
130
100
AcDbEntity
  8
0
  0
POLYLINE
  5
138
330
1F
100
AcDbEntity
  8
0
100
AcDbPolyFaceMesh
 66
     1
 10
0.0
 20
0.0
 30
0.0
 70
    64
 71
     4
 72
     2
  0
VERTEX
  5
139
330
138
100
AcDbEntity
  8
0
100
AcDbVertex
100
AcDbPolyFaceMeshVertex
 10
0.0
 20
230.0
 30
5.0
 70
   192
  0
VERTEX
  5
13A
330
138
100
AcDbEntity
  8
0
100
AcDbVertex
100
AcDbPolyFaceMeshVertex
 10
0.0
 20
170.0
 30
0.0
 70
   192
  0
VERTEX
  5
13B
330
138
100
AcDbEntity
  8
0
100
AcDbVertex
100
AcDbPolyFaceMeshVertex
 10
0.0
 20
170.0
 30
5.0
 70
   192
  0
VERTEX
  5
13C
330
138
100
AcDbEntity
  8
0
100
AcDbVertex
100
AcDbPolyFaceMeshVertex
 10
0.0
 20
221.3397459621557
 30
0.0000000000000056
 70
   192
  0
VERTEX
  5
13D
330
138
100
AcDbEntity
  8
0
100
AcDbFaceRecord
 10
0.0
 20
0.0
 30
0.0
 70
   128
 71
    -1
 72
     2
 73
     3
  0
VERTEX
  5
13E
330
138
100
AcDbEntity
  8
0
100
AcDbFaceRecord
 10
0.0
 20
0.0
 30
0.0
 70
   128
 71
    -2
 72
     1
 73
     4
  0
SEQEND
  5
13F
330
138
100
AcDbEntity
  8
0
  0
POLYLINE
  5
140
330
1F
100
AcDbEntity
  8
0
100
AcDbPolyFaceMesh
 66
     1
 10
0.0
 20
0.0
 30
0.0
 70
    64
 71
     4
 72
     2
  0
VERTEX
  5
141
330
140
100
AcDbEntity
  8
0
100
AcDbVertex
100
AcDbPolyFaceMeshVertex
 10
44.99999999999987
 20
230.0
 30
5.0
 70
   192
  0
VERTEX
  5
142
330
140
100
AcDbEntity
  8
0
100
AcDbVertex
100
AcDbPolyFaceMeshVertex
 10
44.99999999999987
 20
190.0000000000001
 30
0.0
 70
   192
  0
VERTEX
  5
143
330
140
100
AcDbEntity
  8
0
100
AcDbVertex
100
AcDbPolyFaceMeshVertex
 10
44.99999999999987
 20
190.0000000000001
 30
5.0
 70
   192
  0
VERTEX
  5
144
330
140
100
AcDbEntity
  8
0
100
AcDbVertex
100
AcDbPolyFaceMeshVertex
 10
44.99999999999987
 20
221.3397459621556
 30
-0.0000000000000032
 70
   192
  0
VERTEX
  5
145
330
140
100
AcDbEntity
  8
0
100
AcDbFaceRecord
 10
0.0
 20
0.0
 30
0.0
 70
   128
 71
    -1
 72
     2
 73
     3
  0
VERTEX
  5
146
330
140
100
AcDbEntity
  8
0
100
AcDbFaceRecord
 10
0.0
 20
0.0
 30
0.0
 70
   128
 71
    -2
 72
     1
 73
     4
  0
SEQEND
  5
147
330
140
100
AcDbEntity
  8
0
  0
POLYLINE
  5
148
330
1F
100
AcDbEntity
  8
0
100
AcDbPolyFaceMesh
 66
     1
 10
0.0
 20
0.0
 30
0.0
 70
    64
 71
     4
 72
     2
  0
VERTEX
  5
149
330
148
100
AcDbEntity
  8
0
100
AcDbVertex
100
AcDbPolyFaceMeshVertex
 10
155.0000000000001
 20
230.0
 30
5.0
 70
   192
  0
VERTEX
  5
14A
330
148
100
AcDbEntity
  8
0
100
AcDbVertex
100
AcDbPolyFaceMeshVertex
 10
135.0
 20
221.3397459621557
 30
-0.0000000000000011
 70
   192
  0
VERTEX
  5
14B
330
148
100
AcDbEntity
  8
0
100
AcDbVertex
100
AcDbPolyFaceMeshVertex
 10
135.0
 20
230.0
 30
5.0
 70
   192
  0
VERTEX
  5
14C
330
148
100
AcDbEntity
  8
0
100
AcDbVertex
100
AcDbPolyFaceMeshVertex
 10
155.0000000000001
 20
221.3397459621557
 30
-0.0000000000000011
 70
   192
  0
VERTEX
  5
14D
330
148
100
AcDbEntity
  8
0
100
AcDbFaceRecord
 10
0.0
 20
0.0
 30
0.0
 70
   128
 71
    -1
 72
     2
 73
     3
  0
VERTEX
  5
14E
330
148
100
AcDbEntity
  8
0
100
AcDbFaceRecord
 10
0.0
 20
0.0
 30
0.0
 70
   128
 71
    -2
 72
     1
 73
     4
  0
SEQEND
  5
14F
330
148
100
AcDbEntity
  8
0
  0
POLYLINE
  5
150
330
1F
100
AcDbEntity
  8
0
100
AcDbPolyFaceMesh
 66
     1
 10
0.0
 20
0.0
 30
0.0
 70
    64
 71
     4
 72
     2
  0
VERTEX
  5
151
330
150
100
AcDbEntity
  8
0
100
AcDbVertex
100
AcDbPolyFaceMeshVertex
 10
174.9999999999999
 20
125.0
 30
0.0
 70
   192
  0
VERTEX
  5
152
330
150
100
AcDbEntity
  8
0
100
AcDbVertex
100
AcDbPolyFaceMeshVertex
 10
200.0
 20
60.0
 30
5.0
 70
   192
  0
VERTEX
  5
153
330
150
100
AcDbEntity
  8
0
100
AcDbVertex
100
AcDbPolyFaceMeshVertex
 10
200.0
 20
60.0
 30
0.0
 70
   192
  0
VERTEX
  5
154
330
150
100
AcDbEntity
  8
0
100
AcDbVertex
100
AcDbPolyFaceMeshVertex
 10
174.9999999999999
 20
125.0
 30
5.0
 70
   192
  0
VERTEX
  5
155
330
150
100
AcDbEntity
  8
0
100
AcDbFaceRecord
 10
0.0
 20
0.0
 30
0.0
 70
   128
 71
    -1
 72
     2
 73
     3
  0
VERTEX
  5
156
330
150
100
AcDbEntity
  8
0
100
AcDbFaceRecord
 10
0.0
 20
0.0
 30
0.0
 70
   128
 71
    -2
 72
     1
 73
     4
  0
SEQEND
  5
157
330
150
100
AcDbEntity
  8
0
  0
POLYLINE
  5
158
330
1F
100
AcDbEntity
  8
0
100
AcDbPolyFaceMesh
 66
     1
 10
0.0
 20
0.0
 30
0.0
 70
    64
 71
     4
 72
     2
  0
VERTEX
  5
159
330
158
100
AcDbEntity
  8
0
100
AcDbVertex
100
AcDbPolyFaceMeshVertex
 10
0.0
 20
170.0
 30
5.0
 70
   192
  0
VERTEX
  5
15A
330
158
100
AcDbEntity
  8
0
100
AcDbVertex
100
AcDbPolyFaceMeshVertex
 10
25.00000000000009
 20
125.0000000000002
 30
0.0
 70
   192
  0
VERTEX
  5
15B
330
158
100
AcDbEntity
  8
0
100
AcDbVertex
100
AcDbPolyFaceMeshVertex
 10
25.00000000000009
 20
125.0000000000002
 30
5.0
 70
   192
  0
VERTEX
  5
15C
330
158
100
AcDbEntity
  8
0
100
AcDbVertex
100
AcDbPolyFaceMeshVertex
 10
0.0
 20
170.0
 30
0.0
 70
   192
  0
VERTEX
  5
15D
330
158
100
AcDbEntity
  8
0
100
AcDbFaceRecord
 10
0.0
 20
0.0
 30
0.0
 70
   128
 71
    -1
 72
     2
 73
     3
  0
VERTEX
  5
15E
330
158
100
AcDbEntity
  8
0
100
AcDbFaceRecord
 10
0.0
 20
0.0
 30
0.0
 70
   128
 71
    -2
 72
     1
 73
     4
  0
SEQEND
  5
15F
330
158
100
AcDbEntity
  8
0
  0
POLYLINE
  5
160
330
1F
100
AcDbEntity
  8
0
100
AcDbPolyFaceMesh
 66
     1
 10
0.0
 20
0.0
 30
0.0
 70
    64
 71
     4
 72
     2
  0
VERTEX
  5
161
330
160
100
AcDbEntity
  8
0
100
AcDbVertex
100
AcDbPolyFaceMeshVertex
 10
65.00000000000001
 20
190.0000000000001
 30
5.0
 70
   192
  0
VERTEX
  5
162
330
160
100
AcDbEntity
  8
0
100
AcDbVertex
100
AcDbPolyFaceMeshVertex
 10
89.99999999999974
 20
190.0000000000001
 30
0.0
 70
   192
  0
VERTEX
  5
163
330
160
100
AcDbEntity
  8
0
100
AcDbVertex
100
AcDbPolyFaceMeshVertex
 10
65.00000000000001
 20
190.0000000000001
 30
0.0
 70
   192
  0
VERTEX
  5
164
330
160
100
AcDbEntity
  8
0
100
AcDbVertex
100
AcDbPolyFaceMeshVertex
 10
89.99999999999974
 20
190.0000000000001
 30
5.0
 70
   192
  0
VERTEX
  5
165
330
160
100
AcDbEntity
  8
0
100
AcDbFaceRecord
 10
0.0
 20
0.0
 30
0.0
 70
   128
 71
    -1
 72
     2
 73
     3
  0
VERTEX
  5
166
330
160
100
AcDbEntity
  8
0
100
AcDbFaceRecord
 10
0.0
 20
0.0
 30
0.0
 70
   128
 71
    -2
 72
     1
 73
     4
  0
SEQEND
  5
167
330
160
100
AcDbEntity
  8
0
  0
POLYLINE
  5
168
330
1F
100
AcDbEntity
  8
0
100
AcDbPolyFaceMesh
 66
     1
 10
0.0
 20
0.0
 30
0.0
 70
    64
 71
     4
 72
     2
  0
VERTEX
  5
169
330
168
100
AcDbEntity
  8
0
100
AcDbVertex
100
AcDbPolyFaceMeshVertex
 10
179.9999999999999
 20
230.0
 30
5.0
 70
   192
  0
VERTEX
  5
16A
330
168
100
AcDbEntity
  8
0
100
AcDbVertex
100
AcDbPolyFaceMeshVertex
 10
179.9999999999999
 20
190.0000000000001
 30
0.0
 70
   192
  0
VERTEX
  5
16B
330
168
100
AcDbEntity
  8
0
100
AcDbVertex
100
AcDbPolyFaceMeshVertex
 10
179.9999999999999
 20
190.0000000000001
 30
5.0
 70
   192
  0
VERTEX
  5
16C
330
168
100
AcDbEntity
  8
0
100
AcDbVertex
100
AcDbPolyFaceMeshVertex
 10
179.9999999999999
 20
221.3397459621557
 30
-0.0000000000000011
 70
   192
  0
VERTEX
  5
16D
330
168
100
AcDbEntity
  8
0
100
AcDbFaceRecord
 10
0.0
 20
0.0
 30
0.0
 70
   128
 71
    -1
 72
     2
 73
     3
  0
VERTEX
  5
16E
330
168
100
AcDbEntity
  8
0
100
AcDbFaceRecord
 10
0.0
 20
0.0
 30
0.0
 70
   128
 71
    -2
 72
     1
 73
     4
  0
SEQEND
  5
16F
330
168
100
AcDbEntity
  8
0
  0
POLYLINE
  5
170
330
1F
100
AcDbEntity
  8
0
100
AcDbPolyFaceMesh
 66
     1
 10
0.0
 20
0.0
 30
0.0
 70
    64
 71
     4
 72
     2
  0
VERTEX
  5
171
330
170
100
AcDbEntity
  8
0
100
AcDbVertex
100
AcDbPolyFaceMeshVertex
 10
25.00000000000009
 20
125.0000000000002
 30
5.0
 70
   192
  0
VERTEX
  5
172
330
170
100
AcDbEntity
  8
0
100
AcDbVertex
100
AcDbPolyFaceMeshVertex
 10
0.0
 20
60.0
 30
0.0
 70
   192
  0
VERTEX
  5
173
330
170
100
AcDbEntity
  8
0
100
AcDbVertex
100
AcDbPolyFaceMeshVertex
 10
0.0
 20
60.0
 30
5.0
 70
   192
  0
VERTEX
  5
174
330
170
100
AcDbEntity
  8
0
100
AcDbVertex
100
AcDbPolyFaceMeshVertex
 10
25.00000000000009
 20
125.0000000000002
 30
0.0
 70
   192
  0
VERTEX
  5
175
330
170
100
AcDbEntity
  8
0
100
AcDbFaceRecord
 10
0.0
 20
0.0
 30
0.0
 70
   128
 71
    -1
 72
     2
 73
     3
  0
VERTEX
  5
176
330
170
100
AcDbEntity
  8
0
100
AcDbFaceRecord
 10
0.0
 20
0.0
 30
0.0
 70
   128
 71
    -2
 72
     1
 73
     4
  0
SEQEND
  5
177
330
170
100
AcDbEntity
  8
0
  0
POLYLINE
  5
178
330
1F
100
AcDbEntity
  8
0
100
AcDbPolyFaceMesh
 66
     1
 10
0.0
 20
0.0
 30
0.0
 70
    64
 71
     4
 72
     2
  0
VERTEX
  5
179
330
178
100
AcDbEntity
  8
0
100
AcDbVertex
100
AcDbPolyFaceMeshVertex
 10
109.9999999999999
 20
190.0000000000001
 30
5.0
 70
   192
  0
VERTEX
  5
17A
330
178
100
AcDbEntity
  8
0
100
AcDbVertex
100
AcDbPolyFaceMeshVertex
 10
135.0
 20
190.0000000000001
 30
0.0
 70
   192
  0
VERTEX
  5
17B
330
178
100
AcDbEntity
  8
0
100
AcDbVertex
100
AcDbPolyFaceMeshVertex
 10
109.9999999999999
 20
190.0000000000001
 30
0.0
 70
   192
  0
VERTEX
  5
17C
330
178
100
AcDbEntity
  8
0
100
AcDbVertex
100
AcDbPolyFaceMeshVertex
 10
135.0
 20
190.0000000000001
 30
5.0
 70
   192
  0
VERTEX
  5
17D
330
178
100
AcDbEntity
  8
0
100
AcDbFaceRecord
 10
0.0
 20
0.0
 30
0.0
 70
   128
 71
    -1
 72
     2
 73
     3
  0
VERTEX
  5
17E
330
178
100
AcDbEntity
  8
0
100
AcDbFaceRecord
 10
0.0
 20
0.0
 30
0.0
 70
   128
 71
    -2
 72
     1
 73
     4
  0
SEQEND
  5
17F
330
178
100
AcDbEntity
  8
0
  0
POLYLINE
  5
180
330
1F
100
AcDbEntity
  8
0
100
AcDbPolyFaceMesh
 66
     1
 10
0.0
 20
0.0
 30
0.0
 70
    64
 71
     4
 72
     2
  0
VERTEX
  5
181
330
180
100
AcDbEntity
  8
0
100
AcDbVertex
100
AcDbPolyFaceMeshVertex
 10
64.99999999999966
 20
221.3397459621556
 30
-0.0000000000000032
 70
   192
  0
VERTEX
  5
182
330
180
100
AcDbEntity
  8
0
100
AcDbVertex
100
AcDbPolyFaceMeshVertex
 10
65.00000000000001
 20
190.0000000000001
 30
5.0
 70
   192
  0
VERTEX
  5
183
330
180
100
AcDbEntity
  8
0
100
AcDbVertex
100
AcDbPolyFaceMeshVertex
 10
65.00000000000001
 20
190.0000000000001
 30
0.0
 70
   192
  0
VERTEX
  5
184
330
180
100
AcDbEntity
  8
0
100
AcDbVertex
100
AcDbPolyFaceMeshVertex
 10
65.00000000000001
 20
230.0
 30
5.0
 70
   192
  0
VERTEX
  5
185
330
180
100
AcDbEntity
  8
0
100
AcDbFaceRecord
 10
0.0
 20
0.0
 30
0.0
 70
   128
 71
    -1
 72
     2
 73
     3
  0
VERTEX
  5
186
330
180
100
AcDbEntity
  8
0
100
AcDbFaceRecord
 10
0.0
 20
0.0
 30
0.0
 70
   128
 71
    -2
 72
     1
 73
     4
  0
SEQEND
  5
187
330
180
100
AcDbEntity
  8
0
  0
POLYLINE
  5
188
330
1F
100
AcDbEntity
  8
0
100
AcDbPolyFaceMesh
 66
     1
 10
0.0
 20
0.0
 30
0.0
 70
    64
 71
     4
 72
     2
  0
VERTEX
  5
189
330
188
100
AcDbEntity
  8
0
100
AcDbVertex
100
AcDbPolyFaceMeshVertex
 10
155.0000000000001
 20
190.0000000000001
 30
5.0
 70
   192
  0
VERTEX
  5
18A
330
188
100
AcDbEntity
  8
0
100
AcDbVertex
100
AcDbPolyFaceMeshVertex
 10
179.9999999999999
 20
190.0000000000001
 30
0.0
 70
   192
  0
VERTEX
  5
18B
330
188
100
AcDbEntity
  8
0
100
AcDbVertex
100
AcDbPolyFaceMeshVertex
 10
155.0000000000001
 20
190.0000000000001
 30
0.0
 70
   192
  0
VERTEX
  5
18C
330
188
100
AcDbEntity
  8
0
100
AcDbVertex
100
AcDbPolyFaceMeshVertex
 10
179.9999999999999
 20
190.0000000000001
 30
5.0
 70
   192
  0
VERTEX
  5
18D
330
188
100
AcDbEntity
  8
0
100
AcDbFaceRecord
 10
0.0
 20
0.0
 30
0.0
 70
   128
 71
    -1
 72
     2
 73
     3
  0
VERTEX
  5
18E
330
188
100
AcDbEntity
  8
0
100
AcDbFaceRecord
 10
0.0
 20
0.0
 30
0.0
 70
   128
 71
    -2
 72
     1
 73
     4
  0
SEQEND
  5
18F
330
188
100
AcDbEntity
  8
0
  0
POLYLINE
  5
190
330
1F
100
AcDbEntity
  8
0
100
AcDbPolyFaceMesh
 66
     1
 10
0.0
 20
0.0
 30
0.0
 70
    64
 71
     4
 72
     2
  0
VERTEX
  5
191
330
190
100
AcDbEntity
  8
0
100
AcDbVertex
100
AcDbPolyFaceMeshVertex
 10
109.9999999999999
 20
221.3397459621556
 30
-0.0000000000000039
 70
   192
  0
VERTEX
  5
192
330
190
100
AcDbEntity
  8
0
100
AcDbVertex
100
AcDbPolyFaceMeshVertex
 10
109.9999999999999
 20
190.0000000000001
 30
5.0
 70
   192
  0
VERTEX
  5
193
330
190
100
AcDbEntity
  8
0
100
AcDbVertex
100
AcDbPolyFaceMeshVertex
 10
109.9999999999999
 20
190.0000000000001
 30
0.0
 70
   192
  0
VERTEX
  5
194
330
190
100
AcDbEntity
  8
0
100
AcDbVertex
100
AcDbPolyFaceMeshVertex
 10
109.9999999999999
 20
230.0
 30
5.0
 70
   192
  0
VERTEX
  5
195
330
190
100
AcDbEntity
  8
0
100
AcDbFaceRecord
 10
0.0
 20
0.0
 30
0.0
 70
   128
 71
    -1
 72
     2
 73
     3
  0
VERTEX
  5
196
330
190
100
AcDbEntity
  8
0
100
AcDbFaceRecord
 10
0.0
 20
0.0
 30
0.0
 70
   128
 71
    -2
 72
     1
 73
     4
  0
SEQEND
  5
197
330
190
100
AcDbEntity
  8
0
  0
POLYLINE
  5
198
330
1F
100
AcDbEntity
  8
0
100
AcDbPolyFaceMesh
 66
     1
 10
0.0
 20
0.0
 30
0.0
 70
    64
 71
     4
 72
     2
  0
VERTEX
  5
199
330
198
100
AcDbEntity
  8
0
100
AcDbVertex
100
AcDbPolyFaceMeshVertex
 10
155.0000000000001
 20
221.3397459621557
 30
-0.0000000000000011
 70
   192
  0
VERTEX
  5
19A
330
198
100
AcDbEntity
  8
0
100
AcDbVertex
100
AcDbPolyFaceMeshVertex
 10
155.0000000000001
 20
190.0000000000001
 30
5.0
 70
   192
  0
VERTEX
  5
19B
330
198
100
AcDbEntity
  8
0
100
AcDbVertex
100
AcDbPolyFaceMeshVertex
 10
155.0000000000001
 20
190.0000000000001
 30
0.0
 70
   192
  0
VERTEX
  5
19C
330
198
100
AcDbEntity
  8
0
100
AcDbVertex
100
AcDbPolyFaceMeshVertex
 10
155.0000000000001
 20
230.0
 30
5.0
 70
   192
  0
VERTEX
  5
19D
330
198
100
AcDbEntity
  8
0
100
AcDbFaceRecord
 10
0.0
 20
0.0
 30
0.0
 70
   128
 71
    -1
 72
     2
 73
     3
  0
VERTEX
  5
19E
330
198
100
AcDbEntity
  8
0
100
AcDbFaceRecord
 10
0.0
 20
0.0
 30
0.0
 70
   128
 71
    -2
 72
     1
 73
     4
  0
SEQEND
  5
19F
330
198
100
AcDbEntity
  8
0
  0
POLYLINE
  5
1A0
330
1F
100
AcDbEntity
  8
0
100
AcDbPolyFaceMesh
 66
     1
 10
0.0
 20
0.0
 30
0.0
 70
    64
 71
     4
 72
     2
  0
VERTEX
  5
1A1
330
1A0
100
AcDbEntity
  8
0
100
AcDbVertex
100
AcDbPolyFaceMeshVertex
 10
200.0
 20
221.3397459621557
 30
-0.0000000000000011
 70
   192
  0
VERTEX
  5
1A2
330
1A0
100
AcDbEntity
  8
0
100
AcDbVertex
100
AcDbPolyFaceMeshVertex
 10
200.0
 20
170.0000000000001
 30
5.0
 70
   192
  0
VERTEX
  5
1A3
330
1A0
100
AcDbEntity
  8
0
100
AcDbVertex
100
AcDbPolyFaceMeshVertex
 10
200.0
 20
170.0000000000001
 30
0.0
 70
   192
  0
VERTEX
  5
1A4
330
1A0
100
AcDbEntity
  8
0
100
AcDbVertex
100
AcDbPolyFaceMeshVertex
 10
200.0
 20
230.0
 30
5.0
 70
   192
  0
VERTEX
  5
1A5
330
1A0
100
AcDbEntity
  8
0
100
AcDbFaceRecord
 10
0.0
 20
0.0
 30
0.0
 70
   128
 71
    -1
 72
     2
 73
     3
  0
VERTEX
  5
1A6
330
1A0
100
AcDbEntity
  8
0
100
AcDbFaceRecord
 10
0.0
 20
0.0
 30
0.0
 70
   128
 71
    -2
 72
     1
 73
     4
  0
SEQEND
  5
1A7
330
1A0
100
AcDbEntity
  8
0
  0
POLYLINE
  5
1A8
330
1F
100
AcDbEntity
  8
0
100
AcDbPolyFaceMesh
 66
     1
 10
0.0
 20
0.0
 30
0.0
 70
    64
 71
     4
 72
     2
  0
VERTEX
  5
1A9
330
1A8
100
AcDbEntity
  8
0
100
AcDbVertex
100
AcDbPolyFaceMeshVertex
 10
200.0
 20
170.0000000000001
 30
0.0
 70
   192
  0
VERTEX
  5
1AA
330
1A8
100
AcDbEntity
  8
0
100
AcDbVertex
100
AcDbPolyFaceMeshVertex
 10
174.9999999999999
 20
125.0
 30
5.0
 70
   192
  0
VERTEX
  5
1AB
330
1A8
100
AcDbEntity
  8
0
100
AcDbVertex
100
AcDbPolyFaceMeshVertex
 10
174.9999999999999
 20
125.0
 30
0.0
 70
   192
  0
VERTEX
  5
1AC
330
1A8
100
AcDbEntity
  8
0
100
AcDbVertex
100
AcDbPolyFaceMeshVertex
 10
200.0
 20
170.0000000000001
 30
5.0
 70
   192
  0
VERTEX
  5
1AD
330
1A8
100
AcDbEntity
  8
0
100
AcDbFaceRecord
 10
0.0
 20
0.0
 30
0.0
 70
   128
 71
    -1
 72
     2
 73
     3
  0
VERTEX
  5
1AE
330
1A8
100
AcDbEntity
  8
0
100
AcDbFaceRecord
 10
0.0
 20
0.0
 30
0.0
 70
   128
 71
    -2
 72
     1
 73
     4
  0
SEQEND
  5
1AF
330
1A8
100
AcDbEntity
  8
0
  0
POLYLINE
  5
1B0
330
1F
100
AcDbEntity
  8
0
100
AcDbPolyFaceMesh
 66
     1
 10
0.0
 20
0.0
 30
0.0
 70
    64
 71
    49
 72
    47
  0
VERTEX
  5
1B1
330
1B0
100
AcDbEntity
  8
0
100
AcDbVertex
100
AcDbPolyFaceMeshVertex
 10
0.000000000000361
 20
10.74409183759284
 30
5.000000000000002
 70
   192
  0
VERTEX
  5
1B2
330
1B0
100
AcDbEntity
  8
0
100
AcDbVertex
100
AcDbPolyFaceMeshVertex
 10
25.00000000000009
 20
125.0000000000002
 30
5.0
 70
   192
  0
VERTEX
  5
1B3
330
1B0
100
AcDbEntity
  8
0
100
AcDbVertex
100
AcDbPolyFaceMeshVertex
 10
0.0
 20
60.0
 30
5.0
 70
   192
  0
VERTEX
  5
1B4
330
1B0
100
AcDbEntity
  8
0
100
AcDbVertex
100
AcDbPolyFaceMeshVertex
 10
8.221134345410581
 20
9.033533349748815
 30
5.000000000000002
 70
   192
  0
VERTEX
  5
1B5
330
1B0
100
AcDbEntity
  8
0
100
AcDbVertex
100
AcDbPolyFaceMeshVertex
 10
16.47147270113283
 20
7.469891037157159
 30
5.000000000000002
 70
   192
  0
VERTEX
  5
1B6
330
1B0
100
AcDbEntity
  8
0
100
AcDbVertex
100
AcDbPolyFaceMeshVertex
 10
24.74838981172514
 20
6.053662450380333
 30
5.000000000000002
 70
   192
  0
VERTEX
  5
1B7
330
1B0
100
AcDbEntity
  8
0
100
AcDbVertex
100
AcDbPolyFaceMeshVertex
 10
33.04925196439479
 20
4.7852982329728
 30
5.000000000000002
 70
   192
  0
VERTEX
  5
1B8
330
1B0
100
AcDbEntity
  8
0
100
AcDbVertex
100
AcDbPolyFaceMeshVertex
 10
175.2516101882752
 20
6.053662450380311
 30
4.999999999999998
 70
   192
  0
VERTEX
  5
1B9
330
1B0
100
AcDbEntity
  8
0
100
AcDbVertex
100
AcDbPolyFaceMeshVertex
 10
174.9999999999999
 20
125.0
 30
5.0
 70
   192
  0
VERTEX
  5
1BA
330
1B0
100
AcDbEntity
  8
0
100
AcDbVertex
100
AcDbPolyFaceMeshVertex
 10
166.9507480356056
 20
4.7852982329728
 30
4.999999999999998
 70
   192
  0
VERTEX
  5
1BB
330
1B0
100
AcDbEntity
  8
0
100
AcDbVertex
100
AcDbPolyFaceMeshVertex
 10
200.0
 20
60.0
 30
5.0
 70
   192
  0
VERTEX
  5
1BC
330
1B0
100
AcDbEntity
  8
0
100
AcDbVertex
100
AcDbPolyFaceMeshVertex
 10
183.5285272988675
 20
7.469891037157159
 30
4.999999999999997
 70
   192
  0
VERTEX
  5
1BD
330
1B0
100
AcDbEntity
  8
0
100
AcDbVertex
100
AcDbPolyFaceMeshVertex
 10
191.7788656545898
 20
9.033533349748826
 30
4.999999999999997
 70
   192
  0
VERTEX
  5
1BE
330
1B0
100
AcDbEntity
  8
0
100
AcDbVertex
100
AcDbPolyFaceMeshVertex
 10
200.0
 20
10.74409183759284
 30
4.999999999999996
 70
   192
  0
VERTEX
  5
1BF
330
1B0
100
AcDbEntity
  8
0
100
AcDbVertex
100
AcDbPolyFaceMeshVertex
 10
158.6285821729581
 20
3.66520197808664
 30
4.999999999999998
 70
   192
  0
VERTEX
  5
1C0
330
1B0
100
AcDbEntity
  8
0
100
AcDbVertex
100
AcDbPolyFaceMeshVertex
 10
155.0000000000001
 20
190.0000000000001
 30
5.0
 70
   192
  0
VERTEX
  5
1C1
330
1B0
100
AcDbEntity
  8
0
100
AcDbVertex
100
AcDbPolyFaceMeshVertex
 10
150.2877607112674
 20
2.693730100048205
 30
4.999999999999998
 70
   192
  0
VERTEX
  5
1C2
330
1B0
100
AcDbEntity
  8
0
100
AcDbVertex
100
AcDbPolyFaceMeshVertex
 10
179.9999999999999
 20
190.0000000000001
 30
5.0
 70
   192
  0
VERTEX
  5
1C3
330
1B0
100
AcDbEntity
  8
0
100
AcDbVertex
100
AcDbPolyFaceMeshVertex
 10
200.0
 20
170.0000000000001
 30
5.0
 70
   192
  0
VERTEX
  5
1C4
330
1B0
100
AcDbEntity
  8
0
100
AcDbVertex
100
AcDbPolyFaceMeshVertex
 10
179.9999999999999
 20
230.0
 30
5.0
 70
   192
  0
VERTEX
  5
1C5
330
1B0
100
AcDbEntity
  8
0
100
AcDbVertex
100
AcDbPolyFaceMeshVertex
 10
200.0
 20
230.0
 30
5.0
 70
   192
  0
VERTEX
  5
1C6
330
1B0
100
AcDbEntity
  8
0
100
AcDbVertex
100
AcDbPolyFaceMeshVertex
 10
116.7910711140514
 20
0.2995574545872992
 30
5.0
 70
   192
  0
VERTEX
  5
1C7
330
1B0
100
AcDbEntity
  8
0
100
AcDbVertex
100
AcDbPolyFaceMeshVertex
 10
109.9999999999999
 20
190.0000000000001
 30
5.0
 70
   192
  0
VERTEX
  5
1C8
330
1B0
100
AcDbEntity
  8
0
100
AcDbVertex
100
AcDbPolyFaceMeshVertex
 10
108.3968714981495
 20
0.0748953215645853
 30
5.0
 70
   192
  0
VERTEX
  5
1C9
330
1B0
100
AcDbEntity
  8
0
100
AcDbVertex
100
AcDbPolyFaceMeshVertex
 10
135.0
 20
190.0000000000001
 30
5.0
 70
   192
  0
VERTEX
  5
1CA
330
1B0
100
AcDbEntity
  8
0
100
AcDbVertex
100
AcDbPolyFaceMeshVertex
 10
125.1799278156511
 20
0.6739149116378264
 30
4.999999999999999
 70
   192
  0
VERTEX
  5
1CB
330
1B0
100
AcDbEntity
  8
0
100
AcDbVertex
100
AcDbPolyFaceMeshVertex
 10
133.5607722710075
 20
1.197848572274356
 30
4.999999999999999
 70
   192
  0
VERTEX
  5
1CC
330
1B0
100
AcDbEntity
  8
0
100
AcDbVertex
100
AcDbPolyFaceMeshVertex
 10
141.9309376976735
 20
1.871191720947284
 30
4.999999999999998
 70
   192
  0
VERTEX
  5
1CD
330
1B0
100
AcDbEntity
  8
0
100
AcDbVertex
100
AcDbPolyFaceMeshVertex
 10
135.0
 20
230.0
 30
5.0
 70
   192
  0
VERTEX
  5
1CE
330
1B0
100
AcDbEntity
  8
0
100
AcDbVertex
100
AcDbPolyFaceMeshVertex
 10
155.0000000000001
 20
230.0
 30
5.0
 70
   192
  0
VERTEX
  5
1CF
330
1B0
100
AcDbEntity
  8
0
100
AcDbVertex
100
AcDbPolyFaceMeshVertex
 10
66.43922772899289
 20
1.197848572274413
 30
5.000000000000001
 70
   192
  0
VERTEX
  5
1D0
330
1B0
100
AcDbEntity
  8
0
100
AcDbVertex
100
AcDbPolyFaceMeshVertex
 10
65.00000000000001
 20
190.0000000000001
 30
5.0
 70
   192
  0
VERTEX
  5
1D1
330
1B0
100
AcDbEntity
  8
0
100
AcDbVertex
100
AcDbPolyFaceMeshVertex
 10
58.06906230232683
 20
1.871191720947307
 30
5.000000000000001
 70
   192
  0
VERTEX
  5
1D2
330
1B0
100
AcDbEntity
  8
0
100
AcDbVertex
100
AcDbPolyFaceMeshVertex
 10
89.99999999999974
 20
190.0000000000001
 30
5.0
 70
   192
  0
VERTEX
  5
1D3
330
1B0
100
AcDbEntity
  8
0
100
AcDbVertex
100
AcDbPolyFaceMeshVertex
 10
74.8200721843493
 20
0.6739149116378828
 30
5.000000000000001
 70
   192
  0
VERTEX
  5
1D4
330
1B0
100
AcDbEntity
  8
0
100
AcDbVertex
100
AcDbPolyFaceMeshVertex
 10
83.20892888594898
 20
0.2995574545872992
 30
5.000000000000001
 70
   192
  0
VERTEX
  5
1D5
330
1B0
100
AcDbEntity
  8
0
100
AcDbVertex
100
AcDbPolyFaceMeshVertex
 10
91.60312850185117
 20
0.074895321564653
 30
5.000000000000001
 70
   192
  0
VERTEX
  5
1D6
330
1B0
100
AcDbEntity
  8
0
100
AcDbVertex
100
AcDbPolyFaceMeshVertex
 10
89.99999999999974
 20
230.0
 30
5.0
 70
   192
  0
VERTEX
  5
1D7
330
1B0
100
AcDbEntity
  8
0
100
AcDbVertex
100
AcDbPolyFaceMeshVertex
 10
109.9999999999999
 20
230.0
 30
5.0
 70
   192
  0
VERTEX
  5
1D8
330
1B0
100
AcDbEntity
  8
0
100
AcDbVertex
100
AcDbPolyFaceMeshVertex
 10
100.0
 20
0.0
 30
5.0
 70
   192
  0
VERTEX
  5
1D9
330
1B0
100
AcDbEntity
  8
0
100
AcDbVertex
100
AcDbPolyFaceMeshVertex
 10
0.0
 20
230.0
 30
5.0
 70
   192
  0
VERTEX
  5
1DA
330
1B0
100
AcDbEntity
  8
0
100
AcDbVertex
100
AcDbPolyFaceMeshVertex
 10
0.0
 20
170.0
 30
5.0
 70
   192
  0
VERTEX
  5
1DB
330
1B0
100
AcDbEntity
  8
0
100
AcDbVertex
100
AcDbPolyFaceMeshVertex
 10
19.99999999999978
 20
190.0000000000001
 30
5.0
 70
   192
  0
VERTEX
  5
1DC
330
1B0
100
AcDbEntity
  8
0
100
AcDbVertex
100
AcDbPolyFaceMeshVertex
 10
44.99999999999987
 20
190.0000000000001
 30
5.0
 70
   192
  0
VERTEX
  5
1DD
330
1B0
100
AcDbEntity
  8
0
100
AcDbVertex
100
AcDbPolyFaceMeshVertex
 10
41.37141782704222
 20
3.665201978086697
 30
5.000000000000002
 70
   192
  0
VERTEX
  5
1DE
330
1B0
100
AcDbEntity
  8
0
100
AcDbVertex
100
AcDbPolyFaceMeshVertex
 10
49.71223928873333
 20
2.693730100048261
 30
5.000000000000002
 70
   192
  0
VERTEX
  5
1DF
330
1B0
100
AcDbEntity
  8
0
100
AcDbVertex
100
AcDbPolyFaceMeshVertex
 10
44.99999999999987
 20
230.0
 30
5.0
 70
   192
  0
VERTEX
  5
1E0
330
1B0
100
AcDbEntity
  8
0
100
AcDbVertex
100
AcDbPolyFaceMeshVertex
 10
65.00000000000001
 20
230.0
 30
5.0
 70
   192
  0
VERTEX
  5
1E1
330
1B0
100
AcDbEntity
  8
0
100
AcDbVertex
100
AcDbPolyFaceMeshVertex
 10
20.00000000000014
 20
230.0
 30
5.0
 70
   192
  0
VERTEX
  5
1E2
330
1B0
100
AcDbEntity
  8
0
100
AcDbFaceRecord
 10
0.0
 20
0.0
 30
0.0
 70
   128
 71
    -1
 72
     2
 73
     3
  0
VERTEX
  5
1E3
330
1B0
100
AcDbEntity
  8
0
100
AcDbFaceRecord
 10
0.0
 20
0.0
 30
0.0
 70
   128
 71
    -2
 72
     1
 73
    -4
  0
VERTEX
  5
1E4
330
1B0
100
AcDbEntity
  8
0
100
AcDbFaceRecord
 10
0.0
 20
0.0
 30
0.0
 70
   128
 71
    -2
 72
     4
 73
    -5
  0
VERTEX
  5
1E5
330
1B0
100
AcDbEntity
  8
0
100
AcDbFaceRecord
 10
0.0
 20
0.0
 30
0.0
 70
   128
 71
    -2
 72
     5
 73
    -6
  0
VERTEX
  5
1E6
330
1B0
100
AcDbEntity
  8
0
100
AcDbFaceRecord
 10
0.0
 20
0.0
 30
0.0
 70
   128
 71
    -2
 72
     6
 73
    -7
  0
VERTEX
  5
1E7
330
1B0
100
AcDbEntity
  8
0
100
AcDbFaceRecord
 10
0.0
 20
0.0
 30
0.0
 70
   128
 71
    -8
 72
    -9
 73
    10
  0
VERTEX
  5
1E8
330
1B0
100
AcDbEntity
  8
0
100
AcDbFaceRecord
 10
0.0
 20
0.0
 30
0.0
 70
   128
 71
    -9
 72
    -8
 73
    11
  0
VERTEX
  5
1E9
330
1B0
100
AcDbEntity
  8
0
100
AcDbFaceRecord
 10
0.0
 20
0.0
 30
0.0
 70
   128
 71
   -11
 72
     8
 73
   -12
  0
VERTEX
  5
1EA
330
1B0
100
AcDbEntity
  8
0
100
AcDbFaceRecord
 10
0.0
 20
0.0
 30
0.0
 70
   128
 71
   -11
 72
    12
 73
   -13
  0
VERTEX
  5
1EB
330
1B0
100
AcDbEntity
  8
0
100
AcDbFaceRecord
 10
0.0
 20
0.0
 30
0.0
 70
   128
 71
   -11
 72
    13
 73
    14
  0
VERTEX
  5
1EC
330
1B0
100
AcDbEntity
  8
0
100
AcDbFaceRecord
 10
0.0
 20
0.0
 30
0.0
 70
   128
 71
   -15
 72
   -16
 73
    17
  0
VERTEX
  5
1ED
330
1B0
100
AcDbEntity
  8
0
100
AcDbFaceRecord
 10
0.0
 20
0.0
 30
0.0
 70
   128
 71
   -16
 72
   -15
 73
    18
  0
VERTEX
  5
1EE
330
1B0
100
AcDbEntity
  8
0
100
AcDbFaceRecord
 10
0.0
 20
0.0
 30
0.0
 70
   128
 71
   -18
 72
   -15
 73
    -9
  0
VERTEX
  5
1EF
330
1B0
100
AcDbEntity
  8
0
100
AcDbFaceRecord
 10
0.0
 20
0.0
 30
0.0
 70
   128
 71
    -9
 72
    15
 73
   -10
  0
VERTEX
  5
1F0
330
1B0
100
AcDbEntity
  8
0
100
AcDbFaceRecord
 10
0.0
 20
0.0
 30
0.0
 70
   128
 71
   -18
 72
     9
 73
   -19
  0
VERTEX
  5
1F1
330
1B0
100
AcDbEntity
  8
0
100
AcDbFaceRecord
 10
0.0
 20
0.0
 30
0.0
 70
   128
 71
   -18
 72
   -19
 73
    20
  0
VERTEX
  5
1F2
330
1B0
100
AcDbEntity
  8
0
100
AcDbFaceRecord
 10
0.0
 20
0.0
 30
0.0
 70
   128
 71
   -20
 72
    19
 73
    21
  0
VERTEX
  5
1F3
330
1B0
100
AcDbEntity
  8
0
100
AcDbFaceRecord
 10
0.0
 20
0.0
 30
0.0
 70
   128
 71
   -22
 72
   -23
 73
    24
  0
VERTEX
  5
1F4
330
1B0
100
AcDbEntity
  8
0
100
AcDbFaceRecord
 10
0.0
 20
0.0
 30
0.0
 70
   128
 71
   -23
 72
   -22
 73
    25
  0
VERTEX
  5
1F5
330
1B0
100
AcDbEntity
  8
0
100
AcDbFaceRecord
 10
0.0
 20
0.0
 30
0.0
 70
   128
 71
   -25
 72
    22
 73
   -26
  0
VERTEX
  5
1F6
330
1B0
100
AcDbEntity
  8
0
100
AcDbFaceRecord
 10
0.0
 20
0.0
 30
0.0
 70
   128
 71
   -25
 72
    26
 73
   -27
  0
VERTEX
  5
1F7
330
1B0
100
AcDbEntity
  8
0
100
AcDbFaceRecord
 10
0.0
 20
0.0
 30
0.0
 70
   128
 71
   -25
 72
    27
 73
   -28
  0
VERTEX
  5
1F8
330
1B0
100
AcDbEntity
  8
0
100
AcDbFaceRecord
 10
0.0
 20
0.0
 30
0.0
 70
   128
 71
   -25
 72
   -28
 73
    29
  0
VERTEX
  5
1F9
330
1B0
100
AcDbEntity
  8
0
100
AcDbFaceRecord
 10
0.0
 20
0.0
 30
0.0
 70
   128
 71
   -29
 72
   -28
 73
    30
  0
VERTEX
  5
1FA
330
1B0
100
AcDbEntity
  8
0
100
AcDbFaceRecord
 10
0.0
 20
0.0
 30
0.0
 70
   128
 71
   -30
 72
    28
 73
   -17
  0
VERTEX
  5
1FB
330
1B0
100
AcDbEntity
  8
0
100
AcDbFaceRecord
 10
0.0
 20
0.0
 30
0.0
 70
   128
 71
   -30
 72
   -17
 73
    16
  0
VERTEX
  5
1FC
330
1B0
100
AcDbEntity
  8
0
100
AcDbFaceRecord
 10
0.0
 20
0.0
 30
0.0
 70
   128
 71
   -31
 72
   -32
 73
    33
  0
VERTEX
  5
1FD
330
1B0
100
AcDbEntity
  8
0
100
AcDbFaceRecord
 10
0.0
 20
0.0
 30
0.0
 70
   128
 71
   -32
 72
   -31
 73
    34
  0
VERTEX
  5
1FE
330
1B0
100
AcDbEntity
  8
0
100
AcDbFaceRecord
 10
0.0
 20
0.0
 30
0.0
 70
   128
 71
   -34
 72
    31
 73
   -35
  0
VERTEX
  5
1FF
330
1B0
100
AcDbEntity
  8
0
100
AcDbFaceRecord
 10
0.0
 20
0.0
 30
0.0
 70
   128
 71
   -34
 72
    35
 73
   -36
  0
VERTEX
  5
200
330
1B0
100
AcDbEntity
  8
0
100
AcDbFaceRecord
 10
0.0
 20
0.0
 30
0.0
 70
   128
 71
   -34
 72
    36
 73
   -37
  0
VERTEX
  5
201
330
1B0
100
AcDbEntity
  8
0
100
AcDbFaceRecord
 10
0.0
 20
0.0
 30
0.0
 70
   128
 71
   -34
 72
   -37
 73
    38
  0
VERTEX
  5
202
330
1B0
100
AcDbEntity
  8
0
100
AcDbFaceRecord
 10
0.0
 20
0.0
 30
0.0
 70
   128
 71
   -38
 72
   -37
 73
    39
  0
VERTEX
  5
203
330
1B0
100
AcDbEntity
  8
0
100
AcDbFaceRecord
 10
0.0
 20
0.0
 30
0.0
 70
   128
 71
   -39
 72
    37
 73
   -40
  0
VERTEX
  5
204
330
1B0
100
AcDbEntity
  8
0
100
AcDbFaceRecord
 10
0.0
 20
0.0
 30
0.0
 70
   128
 71
   -39
 72
    40
 73
   -24
  0
VERTEX
  5
205
330
1B0
100
AcDbEntity
  8
0
100
AcDbFaceRecord
 10
0.0
 20
0.0
 30
0.0
 70
   128
 71
   -39
 72
   -24
 73
    23
  0
VERTEX
  5
206
330
1B0
100
AcDbEntity
  8
0
100
AcDbFaceRecord
 10
0.0
 20
0.0
 30
0.0
 70
   128
 71
    -2
 72
    41
 73
    42
  0
VERTEX
  5
207
330
1B0
100
AcDbEntity
  8
0
100
AcDbFaceRecord
 10
0.0
 20
0.0
 30
0.0
 70
   128
 71
   -41
 72
    -2
 73
   -43
  0
VERTEX
  5
208
330
1B0
100
AcDbEntity
  8
0
100
AcDbFaceRecord
 10
0.0
 20
0.0
 30
0.0
 70
   128
 71
   -43
 72
    -2
 73
    44
  0
VERTEX
  5
209
330
1B0
100
AcDbEntity
  8
0
100
AcDbFaceRecord
 10
0.0
 20
0.0
 30
0.0
 70
   128
 71
   -44
 72
    -2
 73
    -7
  0
VERTEX
  5
20A
330
1B0
100
AcDbEntity
  8
0
100
AcDbFaceRecord
 10
0.0
 20
0.0
 30
0.0
 70
   128
 71
   -44
 72
     7
 73
   -45
  0
VERTEX
  5
20B
330
1B0
100
AcDbEntity
  8
0
100
AcDbFaceRecord
 10
0.0
 20
0.0
 30
0.0
 70
   128
 71
   -44
 72
    45
 73
   -46
  0
VERTEX
  5
20C
330
1B0
100
AcDbEntity
  8
0
100
AcDbFaceRecord
 10
0.0
 20
0.0
 30
0.0
 70
   128
 71
   -44
 72
   -46
 73
    47
  0
VERTEX
  5
20D
330
1B0
100
AcDbEntity
  8
0
100
AcDbFaceRecord
 10
0.0
 20
0.0
 30
0.0
 70
   128
 71
   -47
 72
   -46
 73
    48
  0
VERTEX
  5
20E
330
1B0
100
AcDbEntity
  8
0
100
AcDbFaceRecord
 10
0.0
 20
0.0
 30
0.0
 70
   128
 71
   -48
 72
    46
 73
   -33
  0
VERTEX
  5
20F
330
1B0
100
AcDbEntity
  8
0
100
AcDbFaceRecord
 10
0.0
 20
0.0
 30
0.0
 70
   128
 71
   -48
 72
   -33
 73
    32
  0
VERTEX
  5
210
330
1B0
100
AcDbEntity
  8
0
100
AcDbFaceRecord
 10
0.0
 20
0.0
 30
0.0
 70
   128
 71
    49
 72
   -41
 73
    43
  0
SEQEND
  5
211
330
1B0
100
AcDbEntity
  8
0
  0
POLYLINE
  5
212
330
1F
100
AcDbEntity
  8
0
100
AcDbPolyFaceMesh
 66
     1
 10
0.0
 20
0.0
 30
0.0
 70
    64
 71
    49
 72
    47
  0
VERTEX
  5
213
330
212
100
AcDbEntity
  8
0
100
AcDbVertex
100
AcDbPolyFaceMeshVertex
 10
20.00000000000014
 20
221.3397459621557
 30
0.0000000000000056
 70
   192
  0
VERTEX
  5
214
330
212
100
AcDbEntity
  8
0
100
AcDbVertex
100
AcDbPolyFaceMeshVertex
 10
0.0
 20
170.0
 30
0.0
 70
   192
  0
VERTEX
  5
215
330
212
100
AcDbEntity
  8
0
100
AcDbVertex
100
AcDbPolyFaceMeshVertex
 10
0.0
 20
221.3397459621557
 30
0.0000000000000056
 70
   192
  0
VERTEX
  5
216
330
212
100
AcDbEntity
  8
0
100
AcDbVertex
100
AcDbPolyFaceMeshVertex
 10
19.99999999999978
 20
190.0000000000001
 30
0.0
 70
   192
  0
VERTEX
  5
217
330
212
100
AcDbEntity
  8
0
100
AcDbVertex
100
AcDbPolyFaceMeshVertex
 10
200.0
 20
221.3397459621557
 30
-0.0000000000000011
 70
   192
  0
VERTEX
  5
218
330
212
100
AcDbEntity
  8
0
100
AcDbVertex
100
AcDbPolyFaceMeshVertex
 10
179.9999999999999
 20
190.0000000000001
 30
0.0
 70
   192
  0
VERTEX
  5
219
330
212
100
AcDbEntity
  8
0
100
AcDbVertex
100
AcDbPolyFaceMeshVertex
 10
179.9999999999999
 20
221.3397459621557
 30
-0.0000000000000011
 70
   192
  0
VERTEX
  5
21A
330
212
100
AcDbEntity
  8
0
100
AcDbVertex
100
AcDbPolyFaceMeshVertex
 10
155.0000000000001
 20
221.3397459621557
 30
-0.0000000000000011
 70
   192
  0
VERTEX
  5
21B
330
212
100
AcDbEntity
  8
0
100
AcDbVertex
100
AcDbPolyFaceMeshVertex
 10
135.0
 20
190.0000000000001
 30
0.0
 70
   192
  0
VERTEX
  5
21C
330
212
100
AcDbEntity
  8
0
100
AcDbVertex
100
AcDbPolyFaceMeshVertex
 10
135.0
 20
221.3397459621557
 30
-0.0000000000000011
 70
   192
  0
VERTEX
  5
21D
330
212
100
AcDbEntity
  8
0
100
AcDbVertex
100
AcDbPolyFaceMeshVertex
 10
141.9309376976735
 20
6.871191720947275
 30
0.0000000000000027
 70
   192
  0
VERTEX
  5
21E
330
212
100
AcDbEntity
  8
0
100
AcDbVertex
100
AcDbPolyFaceMeshVertex
 10
150.2877607112674
 20
7.693730100048196
 30
0.0000000000000027
 70
   192
  0
VERTEX
  5
21F
330
212
100
AcDbEntity
  8
0
100
AcDbVertex
100
AcDbPolyFaceMeshVertex
 10
155.0000000000001
 20
190.0000000000001
 30
0.0
 70
   192
  0
VERTEX
  5
220
330
212
100
AcDbEntity
  8
0
100
AcDbVertex
100
AcDbPolyFaceMeshVertex
 10
158.5861003604666
 20
8.66025403784438
 30
0.0000000000000019
 70
   192
  0
VERTEX
  5
221
330
212
100
AcDbEntity
  8
0
100
AcDbVertex
100
AcDbPolyFaceMeshVertex
 10
174.9999999999999
 20
125.0
 30
0.0
 70
   192
  0
VERTEX
  5
222
330
212
100
AcDbEntity
  8
0
100
AcDbVertex
100
AcDbPolyFaceMeshVertex
 10
166.9507480356056
 20
9.78529823297279
 30
0.000000000000002
 70
   192
  0
VERTEX
  5
223
330
212
100
AcDbEntity
  8
0
100
AcDbVertex
100
AcDbPolyFaceMeshVertex
 10
200.0
 20
170.0000000000001
 30
0.0
 70
   192
  0
VERTEX
  5
224
330
212
100
AcDbEntity
  8
0
100
AcDbVertex
100
AcDbPolyFaceMeshVertex
 10
175.2516101882752
 20
11.0536624503803
 30
0.000000000000002
 70
   192
  0
VERTEX
  5
225
330
212
100
AcDbEntity
  8
0
100
AcDbVertex
100
AcDbPolyFaceMeshVertex
 10
200.0
 20
60.0
 30
0.0
 70
   192
  0
VERTEX
  5
226
330
212
100
AcDbEntity
  8
0
100
AcDbVertex
100
AcDbPolyFaceMeshVertex
 10
183.5285272988675
 20
12.46989103715715
 30
0.0000000000000013
 70
   192
  0
VERTEX
  5
227
330
212
100
AcDbEntity
  8
0
100
AcDbVertex
100
AcDbPolyFaceMeshVertex
 10
191.7788656545898
 20
14.03353334974882
 30
0.0000000000000013
 70
   192
  0
VERTEX
  5
228
330
212
100
AcDbEntity
  8
0
100
AcDbVertex
100
AcDbPolyFaceMeshVertex
 10
200.0
 20
15.74409183759283
 30
0.0000000000000006
 70
   192
  0
VERTEX
  5
229
330
212
100
AcDbEntity
  8
0
100
AcDbVertex
100
AcDbPolyFaceMeshVertex
 10
109.9999999999999
 20
221.3397459621556
 30
-0.0000000000000039
 70
   192
  0
VERTEX
  5
22A
330
212
100
AcDbEntity
  8
0
100
AcDbVertex
100
AcDbPolyFaceMeshVertex
 10
89.99999999999974
 20
190.0000000000001
 30
0.0
 70
   192
  0
VERTEX
  5
22B
330
212
100
AcDbEntity
  8
0
100
AcDbVertex
100
AcDbPolyFaceMeshVertex
 10
89.99999999999974
 20
221.3397459621556
 30
-0.0000000000000039
 70
   192
  0
VERTEX
  5
22C
330
212
100
AcDbEntity
  8
0
100
AcDbVertex
100
AcDbPolyFaceMeshVertex
 10
91.60312850185117
 20
5.074895321564644
 30
0.0000000000000048
 70
   192
  0
VERTEX
  5
22D
330
212
100
AcDbEntity
  8
0
100
AcDbVertex
100
AcDbPolyFaceMeshVertex
 10
100.0
 20
4.999999999999991
 30
0.0000000000000041
 70
   192
  0
VERTEX
  5
22E
330
212
100
AcDbEntity
  8
0
100
AcDbVertex
100
AcDbPolyFaceMeshVertex
 10
108.3968714981495
 20
5.074895321564576
 30
0.0000000000000041
 70
   192
  0
VERTEX
  5
22F
330
212
100
AcDbEntity
  8
0
100
AcDbVertex
100
AcDbPolyFaceMeshVertex
 10
109.9999999999999
 20
190.0000000000001
 30
0.0
 70
   192
  0
VERTEX
  5
230
330
212
100
AcDbEntity
  8
0
100
AcDbVertex
100
AcDbPolyFaceMeshVertex
 10
116.7910711140514
 20
5.29955745458729
 30
0.0000000000000041
 70
   192
  0
VERTEX
  5
231
330
212
100
AcDbEntity
  8
0
100
AcDbVertex
100
AcDbPolyFaceMeshVertex
 10
125.1799278156511
 20
5.673914911637818
 30
0.0000000000000034
 70
   192
  0
VERTEX
  5
232
330
212
100
AcDbEntity
  8
0
100
AcDbVertex
100
AcDbPolyFaceMeshVertex
 10
133.5607722710075
 20
6.197848572274347
 30
0.0000000000000034
 70
   192
  0
VERTEX
  5
233
330
212
100
AcDbEntity
  8
0
100
AcDbVertex
100
AcDbPolyFaceMeshVertex
 10
64.99999999999966
 20
221.3397459621556
 30
-0.0000000000000032
 70
   192
  0
VERTEX
  5
234
330
212
100
AcDbEntity
  8
0
100
AcDbVertex
100
AcDbPolyFaceMeshVertex
 10
44.99999999999987
 20
190.0000000000001
 30
0.0
 70
   192
  0
VERTEX
  5
235
330
212
100
AcDbEntity
  8
0
100
AcDbVertex
100
AcDbPolyFaceMeshVertex
 10
44.99999999999987
 20
221.3397459621556
 30
-0.0000000000000032
 70
   192
  0
VERTEX
  5
236
330
212
100
AcDbEntity
  8
0
100
AcDbVertex
100
AcDbPolyFaceMeshVertex
 10
49.71223928873333
 20
7.693730100048252
 30
0.0000000000000055
 70
   192
  0
VERTEX
  5
237
330
212
100
AcDbEntity
  8
0
100
AcDbVertex
100
AcDbPolyFaceMeshVertex
 10
58.06906230232683
 20
6.871191720947298
 30
0.0000000000000048
 70
   192
  0
VERTEX
  5
238
330
212
100
AcDbEntity
  8
0
100
AcDbVertex
100
AcDbPolyFaceMeshVertex
 10
65.00000000000001
 20
190.0000000000001
 30
0.0
 70
   192
  0
VERTEX
  5
239
330
212
100
AcDbEntity
  8
0
100
AcDbVertex
100
AcDbPolyFaceMeshVertex
 10
66.43922772899289
 20
6.197848572274403
 30
0.0000000000000048
 70
   192
  0
VERTEX
  5
23A
330
212
100
AcDbEntity
  8
0
100
AcDbVertex
100
AcDbPolyFaceMeshVertex
 10
74.8200721843493
 20
5.673914911637874
 30
0.0000000000000048
 70
   192
  0
VERTEX
  5
23B
330
212
100
AcDbEntity
  8
0
100
AcDbVertex
100
AcDbPolyFaceMeshVertex
 10
83.20892888594898
 20
5.29955745458729
 30
0.0000000000000048
 70
   192
  0
VERTEX
  5
23C
330
212
100
AcDbEntity
  8
0
100
AcDbVertex
100
AcDbPolyFaceMeshVertex
 10
25.00000000000009
 20
125.0000000000002
 30
0.0
 70
   192
  0
VERTEX
  5
23D
330
212
100
AcDbEntity
  8
0
100
AcDbVertex
100
AcDbPolyFaceMeshVertex
 10
33.04925196439479
 20
9.78529823297279
 30
0.0000000000000055
 70
   192
  0
VERTEX
  5
23E
330
212
100
AcDbEntity
  8
0
100
AcDbVertex
100
AcDbPolyFaceMeshVertex
 10
41.41389963953452
 20
8.66025403784438
 30
0.0000000000000033
 70
   192
  0
VERTEX
  5
23F
330
212
100
AcDbEntity
  8
0
100
AcDbVertex
100
AcDbPolyFaceMeshVertex
 10
0.000000000000361
 20
15.74409183759283
 30
0.0000000000000055
 70
   192
  0
VERTEX
  5
240
330
212
100
AcDbEntity
  8
0
100
AcDbVertex
100
AcDbPolyFaceMeshVertex
 10
0.0
 20
60.0
 30
0.0
 70
   192
  0
VERTEX
  5
241
330
212
100
AcDbEntity
  8
0
100
AcDbVertex
100
AcDbPolyFaceMeshVertex
 10
8.221134345410581
 20
14.03353334974881
 30
0.0000000000000055
 70
   192
  0
VERTEX
  5
242
330
212
100
AcDbEntity
  8
0
100
AcDbVertex
100
AcDbPolyFaceMeshVertex
 10
16.47147270113283
 20
12.46989103715715
 30
0.0000000000000055
 70
   192
  0
VERTEX
  5
243
330
212
100
AcDbEntity
  8
0
100
AcDbVertex
100
AcDbPolyFaceMeshVertex
 10
24.74838981172514
 20
11.05366245038032
 30
0.0000000000000055
 70
   192
  0
VERTEX
  5
244
330
212
100
AcDbEntity
  8
0
100
AcDbFaceRecord
 10
0.0
 20
0.0
 30
0.0
 70
   128
 71
    -1
 72
     2
 73
     3
  0
VERTEX
  5
245
330
212
100
AcDbEntity
  8
0
100
AcDbFaceRecord
 10
0.0
 20
0.0
 30
0.0
 70
   128
 71
    -2
 72
     1
 73
    -4
  0
VERTEX
  5
246
330
212
100
AcDbEntity
  8
0
100
AcDbFaceRecord
 10
0.0
 20
0.0
 30
0.0
 70
   128
 71
    -5
 72
     6
 73
     7
  0
VERTEX
  5
247
330
212
100
AcDbEntity
  8
0
100
AcDbFaceRecord
 10
0.0
 20
0.0
 30
0.0
 70
   128
 71
    -8
 72
     9
 73
    10
  0
VERTEX
  5
248
330
212
100
AcDbEntity
  8
0
100
AcDbFaceRecord
 10
0.0
 20
0.0
 30
0.0
 70
   128
 71
    -9
 72
    -8
 73
   -11
  0
VERTEX
  5
249
330
212
100
AcDbEntity
  8
0
100
AcDbFaceRecord
 10
0.0
 20
0.0
 30
0.0
 70
   128
 71
   -11
 72
    -8
 73
    12
  0
VERTEX
  5
24A
330
212
100
AcDbEntity
  8
0
100
AcDbFaceRecord
 10
0.0
 20
0.0
 30
0.0
 70
   128
 71
   -12
 72
     8
 73
   -13
  0
VERTEX
  5
24B
330
212
100
AcDbEntity
  8
0
100
AcDbFaceRecord
 10
0.0
 20
0.0
 30
0.0
 70
   128
 71
   -12
 72
   -13
 73
    14
  0
VERTEX
  5
24C
330
212
100
AcDbEntity
  8
0
100
AcDbFaceRecord
 10
0.0
 20
0.0
 30
0.0
 70
   128
 71
   -14
 72
    13
 73
    -6
  0
VERTEX
  5
24D
330
212
100
AcDbEntity
  8
0
100
AcDbFaceRecord
 10
0.0
 20
0.0
 30
0.0
 70
   128
 71
   -14
 72
    -6
 73
   -15
  0
VERTEX
  5
24E
330
212
100
AcDbEntity
  8
0
100
AcDbFaceRecord
 10
0.0
 20
0.0
 30
0.0
 70
   128
 71
   -14
 72
   -15
 73
    16
  0
VERTEX
  5
24F
330
212
100
AcDbEntity
  8
0
100
AcDbFaceRecord
 10
0.0
 20
0.0
 30
0.0
 70
   128
 71
   -15
 72
    -6
 73
    17
  0
VERTEX
  5
250
330
212
100
AcDbEntity
  8
0
100
AcDbFaceRecord
 10
0.0
 20
0.0
 30
0.0
 70
   128
 71
   -17
 72
    -6
 73
     5
  0
VERTEX
  5
251
330
212
100
AcDbEntity
  8
0
100
AcDbFaceRecord
 10
0.0
 20
0.0
 30
0.0
 70
   128
 71
   -15
 72
    18
 73
   -16
  0
VERTEX
  5
252
330
212
100
AcDbEntity
  8
0
100
AcDbFaceRecord
 10
0.0
 20
0.0
 30
0.0
 70
   128
 71
   -18
 72
    15
 73
   -19
  0
VERTEX
  5
253
330
212
100
AcDbEntity
  8
0
100
AcDbFaceRecord
 10
0.0
 20
0.0
 30
0.0
 70
   128
 71
   -18
 72
   -19
 73
    20
  0
VERTEX
  5
254
330
212
100
AcDbEntity
  8
0
100
AcDbFaceRecord
 10
0.0
 20
0.0
 30
0.0
 70
   128
 71
   -20
 72
   -19
 73
    21
  0
VERTEX
  5
255
330
212
100
AcDbEntity
  8
0
100
AcDbFaceRecord
 10
0.0
 20
0.0
 30
0.0
 70
   128
 71
   -21
 72
    19
 73
    22
  0
VERTEX
  5
256
330
212
100
AcDbEntity
  8
0
100
AcDbFaceRecord
 10
0.0
 20
0.0
 30
0.0
 70
   128
 71
   -23
 72
    24
 73
    25
  0
VERTEX
  5
257
330
212
100
AcDbEntity
  8
0
100
AcDbFaceRecord
 10
0.0
 20
0.0
 30
0.0
 70
   128
 71
   -24
 72
   -23
 73
   -26
  0
VERTEX
  5
258
330
212
100
AcDbEntity
  8
0
100
AcDbFaceRecord
 10
0.0
 20
0.0
 30
0.0
 70
   128
 71
   -26
 72
   -23
 73
    27
  0
VERTEX
  5
259
330
212
100
AcDbEntity
  8
0
100
AcDbFaceRecord
 10
0.0
 20
0.0
 30
0.0
 70
   128
 71
   -27
 72
   -23
 73
    28
  0
VERTEX
  5
25A
330
212
100
AcDbEntity
  8
0
100
AcDbFaceRecord
 10
0.0
 20
0.0
 30
0.0
 70
   128
 71
   -28
 72
    23
 73
   -29
  0
VERTEX
  5
25B
330
212
100
AcDbEntity
  8
0
100
AcDbFaceRecord
 10
0.0
 20
0.0
 30
0.0
 70
   128
 71
   -28
 72
   -29
 73
    30
  0
VERTEX
  5
25C
330
212
100
AcDbEntity
  8
0
100
AcDbFaceRecord
 10
0.0
 20
0.0
 30
0.0
 70
   128
 71
   -30
 72
    29
 73
    -9
  0
VERTEX
  5
25D
330
212
100
AcDbEntity
  8
0
100
AcDbFaceRecord
 10
0.0
 20
0.0
 30
0.0
 70
   128
 71
   -30
 72
    -9
 73
    31
  0
VERTEX
  5
25E
330
212
100
AcDbEntity
  8
0
100
AcDbFaceRecord
 10
0.0
 20
0.0
 30
0.0
 70
   128
 71
   -31
 72
    -9
 73
    32
  0
VERTEX
  5
25F
330
212
100
AcDbEntity
  8
0
100
AcDbFaceRecord
 10
0.0
 20
0.0
 30
0.0
 70
   128
 71
   -32
 72
    -9
 73
    11
  0
VERTEX
  5
260
330
212
100
AcDbEntity
  8
0
100
AcDbFaceRecord
 10
0.0
 20
0.0
 30
0.0
 70
   128
 71
   -33
 72
    34
 73
    35
  0
VERTEX
  5
261
330
212
100
AcDbEntity
  8
0
100
AcDbFaceRecord
 10
0.0
 20
0.0
 30
0.0
 70
   128
 71
   -34
 72
   -33
 73
   -36
  0
VERTEX
  5
262
330
212
100
AcDbEntity
  8
0
100
AcDbFaceRecord
 10
0.0
 20
0.0
 30
0.0
 70
   128
 71
   -36
 72
   -33
 73
    37
  0
VERTEX
  5
263
330
212
100
AcDbEntity
  8
0
100
AcDbFaceRecord
 10
0.0
 20
0.0
 30
0.0
 70
   128
 71
   -37
 72
    33
 73
   -38
  0
VERTEX
  5
264
330
212
100
AcDbEntity
  8
0
100
AcDbFaceRecord
 10
0.0
 20
0.0
 30
0.0
 70
   128
 71
   -37
 72
   -38
 73
    39
  0
VERTEX
  5
265
330
212
100
AcDbEntity
  8
0
100
AcDbFaceRecord
 10
0.0
 20
0.0
 30
0.0
 70
   128
 71
   -39
 72
    38
 73
   -24
  0
VERTEX
  5
266
330
212
100
AcDbEntity
  8
0
100
AcDbFaceRecord
 10
0.0
 20
0.0
 30
0.0
 70
   128
 71
   -39
 72
   -24
 73
    40
  0
VERTEX
  5
267
330
212
100
AcDbEntity
  8
0
100
AcDbFaceRecord
 10
0.0
 20
0.0
 30
0.0
 70
   128
 71
   -40
 72
   -24
 73
    41
  0
VERTEX
  5
268
330
212
100
AcDbEntity
  8
0
100
AcDbFaceRecord
 10
0.0
 20
0.0
 30
0.0
 70
   128
 71
   -41
 72
   -24
 73
    26
  0
VERTEX
  5
269
330
212
100
AcDbEntity
  8
0
100
AcDbFaceRecord
 10
0.0
 20
0.0
 30
0.0
 70
   128
 71
    -4
 72
    42
 73
    -2
  0
VERTEX
  5
26A
330
212
100
AcDbEntity
  8
0
100
AcDbFaceRecord
 10
0.0
 20
0.0
 30
0.0
 70
   128
 71
   -42
 72
     4
 73
   -34
  0
VERTEX
  5
26B
330
212
100
AcDbEntity
  8
0
100
AcDbFaceRecord
 10
0.0
 20
0.0
 30
0.0
 70
   128
 71
   -42
 72
   -34
 73
   -43
  0
VERTEX
  5
26C
330
212
100
AcDbEntity
  8
0
100
AcDbFaceRecord
 10
0.0
 20
0.0
 30
0.0
 70
   128
 71
   -43
 72
   -34
 73
    44
  0
VERTEX
  5
26D
330
212
100
AcDbEntity
  8
0
100
AcDbFaceRecord
 10
0.0
 20
0.0
 30
0.0
 70
   128
 71
   -44
 72
   -34
 73
    36
  0
VERTEX
  5
26E
330
212
100
AcDbEntity
  8
0
100
AcDbFaceRecord
 10
0.0
 20
0.0
 30
0.0
 70
   128
 71
   -42
 72
    45
 73
    46
  0
VERTEX
  5
26F
330
212
100
AcDbEntity
  8
0
100
AcDbFaceRecord
 10
0.0
 20
0.0
 30
0.0
 70
   128
 71
   -45
 72
   -42
 73
    47
  0
VERTEX
  5
270
330
212
100
AcDbEntity
  8
0
100
AcDbFaceRecord
 10
0.0
 20
0.0
 30
0.0
 70
   128
 71
   -47
 72
   -42
 73
    48
  0
VERTEX
  5
271
330
212
100
AcDbEntity
  8
0
100
AcDbFaceRecord
 10
0.0
 20
0.0
 30
0.0
 70
   128
 71
   -48
 72
   -42
 73
    49
  0
VERTEX
  5
272
330
212
100
AcDbEntity
  8
0
100
AcDbFaceRecord
 10
0.0
 20
0.0
 30
0.0
 70
   128
 71
   -49
 72
   -42
 73
    43
  0
SEQEND
  5
273
330
212
100
AcDbEntity
  8
0
  0
POLYLINE
  5
274
330
1F
100
AcDbEntity
  8
0
100
AcDbPolyFaceMesh
 66
     1
 10
0.0
 20
0.0
 30
0.0
 70
    64
 71
     4
 72
     2
  0
VERTEX
  5
275
330
274
100
AcDbEntity
  8
0
100
AcDbVertex
100
AcDbPolyFaceMeshVertex
 10
166.9507480356056
 20
4.7852982329728
 30
4.999999999999998
 70
   192
  0
VERTEX
  5
276
330
274
100
AcDbEntity
  8
0
100
AcDbVertex
100
AcDbPolyFaceMeshVertex
 10
175.2516101882752
 20
11.0536624503803
 30
0.000000000000002
 70
   192
  0
VERTEX
  5
277
330
274
100
AcDbEntity
  8
0
100
AcDbVertex
100
AcDbPolyFaceMeshVertex
 10
166.9507480356056
 20
9.78529823297279
 30
0.000000000000002
 70
   192
  0
VERTEX
  5
278
330
274
100
AcDbEntity
  8
0
100
AcDbVertex
100
AcDbPolyFaceMeshVertex
 10
175.2516101882752
 20
6.053662450380311
 30
4.999999999999998
 70
   192
  0
VERTEX
  5
279
330
274
100
AcDbEntity
  8
0
100
AcDbFaceRecord
 10
0.0
 20
0.0
 30
0.0
 70
   128
 71
    -1
 72
     2
 73
     3
  0
VERTEX
  5
27A
330
274
100
AcDbEntity
  8
0
100
AcDbFaceRecord
 10
0.0
 20
0.0
 30
0.0
 70
   128
 71
    -2
 72
     1
 73
     4
  0
SEQEND
  5
27B
330
274
100
AcDbEntity
  8
0
  0
POLYLINE
  5
27C
330
1F
100
AcDbEntity
  8
0
100
AcDbPolyFaceMesh
 66
     1
 10
0.0
 20
0.0
 30
0.0
 70
    64
 71
     4
 72
     2
  0
VERTEX
  5
27D
330
27C
100
AcDbEntity
  8
0
100
AcDbVertex
100
AcDbPolyFaceMeshVertex
 10
175.2516101882752
 20
11.0536624503803
 30
0.000000000000002
 70
   192
  0
VERTEX
  5
27E
330
27C
100
AcDbEntity
  8
0
100
AcDbVertex
100
AcDbPolyFaceMeshVertex
 10
183.5285272988675
 20
7.469891037157159
 30
4.999999999999997
 70
   192
  0
VERTEX
  5
27F
330
27C
100
AcDbEntity
  8
0
100
AcDbVertex
100
AcDbPolyFaceMeshVertex
 10
183.5285272988675
 20
12.46989103715715
 30
0.0000000000000013
 70
   192
  0
VERTEX
  5
280
330
27C
100
AcDbEntity
  8
0
100
AcDbVertex
100
AcDbPolyFaceMeshVertex
 10
175.2516101882752
 20
6.053662450380311
 30
4.999999999999998
 70
   192
  0
VERTEX
  5
281
330
27C
100
AcDbEntity
  8
0
100
AcDbFaceRecord
 10
0.0
 20
0.0
 30
0.0
 70
   128
 71
    -1
 72
     2
 73
     3
  0
VERTEX
  5
282
330
27C
100
AcDbEntity
  8
0
100
AcDbFaceRecord
 10
0.0
 20
0.0
 30
0.0
 70
   128
 71
    -2
 72
     1
 73
     4
  0
SEQEND
  5
283
330
27C
100
AcDbEntity
  8
0
  0
POLYLINE
  5
284
330
1F
100
AcDbEntity
  8
0
100
AcDbPolyFaceMesh
 66
     1
 10
0.0
 20
0.0
 30
0.0
 70
    64
 71
     4
 72
     2
  0
VERTEX
  5
285
330
284
100
AcDbEntity
  8
0
100
AcDbVertex
100
AcDbPolyFaceMeshVertex
 10
183.5285272988675
 20
7.469891037157159
 30
4.999999999999997
 70
   192
  0
VERTEX
  5
286
330
284
100
AcDbEntity
  8
0
100
AcDbVertex
100
AcDbPolyFaceMeshVertex
 10
191.7788656545898
 20
14.03353334974882
 30
0.0000000000000013
 70
   192
  0
VERTEX
  5
287
330
284
100
AcDbEntity
  8
0
100
AcDbVertex
100
AcDbPolyFaceMeshVertex
 10
183.5285272988675
 20
12.46989103715715
 30
0.0000000000000013
 70
   192
  0
VERTEX
  5
288
330
284
100
AcDbEntity
  8
0
100
AcDbVertex
100
AcDbPolyFaceMeshVertex
 10
191.7788656545898
 20
9.033533349748826
 30
4.999999999999997
 70
   192
  0
VERTEX
  5
289
330
284
100
AcDbEntity
  8
0
100
AcDbFaceRecord
 10
0.0
 20
0.0
 30
0.0
 70
   128
 71
    -1
 72
     2
 73
     3
  0
VERTEX
  5
28A
330
284
100
AcDbEntity
  8
0
100
AcDbFaceRecord
 10
0.0
 20
0.0
 30
0.0
 70
   128
 71
    -2
 72
     1
 73
     4
  0
SEQEND
  5
28B
330
284
100
AcDbEntity
  8
0
  0
POLYLINE
  5
28C
330
1F
100
AcDbEntity
  8
0
100
AcDbPolyFaceMesh
 66
     1
 10
0.0
 20
0.0
 30
0.0
 70
    64
 71
     4
 72
     2
  0
VERTEX
  5
28D
330
28C
100
AcDbEntity
  8
0
100
AcDbVertex
100
AcDbPolyFaceMeshVertex
 10
158.6285821729581
 20
3.66520197808664
 30
4.999999999999998
 70
   192
  0
VERTEX
  5
28E
330
28C
100
AcDbEntity
  8
0
100
AcDbVertex
100
AcDbPolyFaceMeshVertex
 10
166.9507480356056
 20
9.78529823297279
 30
0.000000000000002
 70
   192
  0
VERTEX
  5
28F
330
28C
100
AcDbEntity
  8
0
100
AcDbVertex
100
AcDbPolyFaceMeshVertex
 10
158.5861003604666
 20
8.66025403784438
 30
0.0000000000000019
 70
   192
  0
VERTEX
  5
290
330
28C
100
AcDbEntity
  8
0
100
AcDbVertex
100
AcDbPolyFaceMeshVertex
 10
166.9507480356056
 20
4.7852982329728
 30
4.999999999999998
 70
   192
  0
VERTEX
  5
291
330
28C
100
AcDbEntity
  8
0
100
AcDbFaceRecord
 10
0.0
 20
0.0
 30
0.0
 70
   128
 71
    -1
 72
     2
 73
     3
  0
VERTEX
  5
292
330
28C
100
AcDbEntity
  8
0
100
AcDbFaceRecord
 10
0.0
 20
0.0
 30
0.0
 70
   128
 71
    -2
 72
     1
 73
     4
  0
SEQEND
  5
293
330
28C
100
AcDbEntity
  8
0
  0
POLYLINE
  5
294
330
1F
100
AcDbEntity
  8
0
100
AcDbPolyFaceMesh
 66
     1
 10
0.0
 20
0.0
 30
0.0
 70
    64
 71
     4
 72
     2
  0
VERTEX
  5
295
330
294
100
AcDbEntity
  8
0
100
AcDbVertex
100
AcDbPolyFaceMeshVertex
 10
150.2877607112674
 20
7.693730100048196
 30
0.0000000000000027
 70
   192
  0
VERTEX
  5
296
330
294
100
AcDbEntity
  8
0
100
AcDbVertex
100
AcDbPolyFaceMeshVertex
 10
158.6285821729581
 20
3.66520197808664
 30
4.999999999999998
 70
   192
  0
VERTEX
  5
297
330
294
100
AcDbEntity
  8
0
100
AcDbVertex
100
AcDbPolyFaceMeshVertex
 10
158.5861003604666
 20
8.66025403784438
 30
0.0000000000000019
 70
   192
  0
VERTEX
  5
298
330
294
100
AcDbEntity
  8
0
100
AcDbVertex
100
AcDbPolyFaceMeshVertex
 10
150.2877607112674
 20
2.693730100048205
 30
4.999999999999998
 70
   192
  0
VERTEX
  5
299
330
294
100
AcDbEntity
  8
0
100
AcDbFaceRecord
 10
0.0
 20
0.0
 30
0.0
 70
   128
 71
    -1
 72
     2
 73
     3
  0
VERTEX
  5
29A
330
294
100
AcDbEntity
  8
0
100
AcDbFaceRecord
 10
0.0
 20
0.0
 30
0.0
 70
   128
 71
    -2
 72
     1
 73
     4
  0
SEQEND
  5
29B
330
294
100
AcDbEntity
  8
0
  0
POLYLINE
  5
29C
330
1F
100
AcDbEntity
  8
0
100
AcDbPolyFaceMesh
 66
     1
 10
0.0
 20
0.0
 30
0.0
 70
    64
 71
     4
 72
     2
  0
VERTEX
  5
29D
330
29C
100
AcDbEntity
  8
0
100
AcDbVertex
100
AcDbPolyFaceMeshVertex
 10
141.9309376976735
 20
1.871191720947284
 30
4.999999999999998
 70
   192
  0
VERTEX
  5
29E
330
29C
100
AcDbEntity
  8
0
100
AcDbVertex
100
AcDbPolyFaceMeshVertex
 10
150.2877607112674
 20
7.693730100048196
 30
0.0000000000000027
 70
   192
  0
VERTEX
  5
29F
330
29C
100
AcDbEntity
  8
0
100
AcDbVertex
100
AcDbPolyFaceMeshVertex
 10
141.9309376976735
 20
6.871191720947275
 30
0.0000000000000027
 70
   192
  0
VERTEX
  5
2A0
330
29C
100
AcDbEntity
  8
0
100
AcDbVertex
100
AcDbPolyFaceMeshVertex
 10
150.2877607112674
 20
2.693730100048205
 30
4.999999999999998
 70
   192
  0
VERTEX
  5
2A1
330
29C
100
AcDbEntity
  8
0
100
AcDbFaceRecord
 10
0.0
 20
0.0
 30
0.0
 70
   128
 71
    -1
 72
     2
 73
     3
  0
VERTEX
  5
2A2
330
29C
100
AcDbEntity
  8
0
100
AcDbFaceRecord
 10
0.0
 20
0.0
 30
0.0
 70
   128
 71
    -2
 72
     1
 73
     4
  0
SEQEND
  5
2A3
330
29C
100
AcDbEntity
  8
0
  0
POLYLINE
  5
2A4
330
1F
100
AcDbEntity
  8
0
100
AcDbPolyFaceMesh
 66
     1
 10
0.0
 20
0.0
 30
0.0
 70
    64
 71
     4
 72
     2
  0
VERTEX
  5
2A5
330
2A4
100
AcDbEntity
  8
0
100
AcDbVertex
100
AcDbPolyFaceMeshVertex
 10
191.7788656545898
 20
14.03353334974882
 30
0.0000000000000013
 70
   192
  0
VERTEX
  5
2A6
330
2A4
100
AcDbEntity
  8
0
100
AcDbVertex
100
AcDbPolyFaceMeshVertex
 10
200.0
 20
10.74409183759284
 30
4.999999999999996
 70
   192
  0
VERTEX
  5
2A7
330
2A4
100
AcDbEntity
  8
0
100
AcDbVertex
100
AcDbPolyFaceMeshVertex
 10
200.0
 20
15.74409183759283
 30
0.0000000000000006
 70
   192
  0
VERTEX
  5
2A8
330
2A4
100
AcDbEntity
  8
0
100
AcDbVertex
100
AcDbPolyFaceMeshVertex
 10
191.7788656545898
 20
9.033533349748826
 30
4.999999999999997
 70
   192
  0
VERTEX
  5
2A9
330
2A4
100
AcDbEntity
  8
0
100
AcDbFaceRecord
 10
0.0
 20
0.0
 30
0.0
 70
   128
 71
    -1
 72
     2
 73
     3
  0
VERTEX
  5
2AA
330
2A4
100
AcDbEntity
  8
0
100
AcDbFaceRecord
 10
0.0
 20
0.0
 30
0.0
 70
   128
 71
    -2
 72
     1
 73
     4
  0
SEQEND
  5
2AB
330
2A4
100
AcDbEntity
  8
0
  0
POLYLINE
  5
2AC
330
1F
100
AcDbEntity
  8
0
100
AcDbPolyFaceMesh
 66
     1
 10
0.0
 20
0.0
 30
0.0
 70
    64
 71
     4
 72
     2
  0
VERTEX
  5
2AD
330
2AC
100
AcDbEntity
  8
0
100
AcDbVertex
100
AcDbPolyFaceMeshVertex
 10
108.3968714981495
 20
0.0748953215645853
 30
5.0
 70
   192
  0
VERTEX
  5
2AE
330
2AC
100
AcDbEntity
  8
0
100
AcDbVertex
100
AcDbPolyFaceMeshVertex
 10
116.7910711140514
 20
5.29955745458729
 30
0.0000000000000041
 70
   192
  0
VERTEX
  5
2AF
330
2AC
100
AcDbEntity
  8
0
100
AcDbVertex
100
AcDbPolyFaceMeshVertex
 10
108.3968714981495
 20
5.074895321564576
 30
0.0000000000000041
 70
   192
  0
VERTEX
  5
2B0
330
2AC
100
AcDbEntity
  8
0
100
AcDbVertex
100
AcDbPolyFaceMeshVertex
 10
116.7910711140514
 20
0.2995574545872992
 30
5.0
 70
   192
  0
VERTEX
  5
2B1
330
2AC
100
AcDbEntity
  8
0
100
AcDbFaceRecord
 10
0.0
 20
0.0
 30
0.0
 70
   128
 71
    -1
 72
     2
 73
     3
  0
VERTEX
  5
2B2
330
2AC
100
AcDbEntity
  8
0
100
AcDbFaceRecord
 10
0.0
 20
0.0
 30
0.0
 70
   128
 71
    -2
 72
     1
 73
     4
  0
SEQEND
  5
2B3
330
2AC
100
AcDbEntity
  8
0
  0
POLYLINE
  5
2B4
330
1F
100
AcDbEntity
  8
0
100
AcDbPolyFaceMesh
 66
     1
 10
0.0
 20
0.0
 30
0.0
 70
    64
 71
     4
 72
     2
  0
VERTEX
  5
2B5
330
2B4
100
AcDbEntity
  8
0
100
AcDbVertex
100
AcDbPolyFaceMeshVertex
 10
83.20892888594898
 20
0.2995574545872992
 30
5.000000000000001
 70
   192
  0
VERTEX
  5
2B6
330
2B4
100
AcDbEntity
  8
0
100
AcDbVertex
100
AcDbPolyFaceMeshVertex
 10
91.60312850185117
 20
5.074895321564644
 30
0.0000000000000048
 70
   192
  0
VERTEX
  5
2B7
330
2B4
100
AcDbEntity
  8
0
100
AcDbVertex
100
AcDbPolyFaceMeshVertex
 10
83.20892888594898
 20
5.29955745458729
 30
0.0000000000000048
 70
   192
  0
VERTEX
  5
2B8
330
2B4
100
AcDbEntity
  8
0
100
AcDbVertex
100
AcDbPolyFaceMeshVertex
 10
91.60312850185117
 20
0.074895321564653
 30
5.000000000000001
 70
   192
  0
VERTEX
  5
2B9
330
2B4
100
AcDbEntity
  8
0
100
AcDbFaceRecord
 10
0.0
 20
0.0
 30
0.0
 70
   128
 71
    -1
 72
     2
 73
     3
  0
VERTEX
  5
2BA
330
2B4
100
AcDbEntity
  8
0
100
AcDbFaceRecord
 10
0.0
 20
0.0
 30
0.0
 70
   128
 71
    -2
 72
     1
 73
     4
  0
SEQEND
  5
2BB
330
2B4
100
AcDbEntity
  8
0
  0
POLYLINE
  5
2BC
330
1F
100
AcDbEntity
  8
0
100
AcDbPolyFaceMesh
 66
     1
 10
0.0
 20
0.0
 30
0.0
 70
    64
 71
     4
 72
     2
  0
VERTEX
  5
2BD
330
2BC
100
AcDbEntity
  8
0
100
AcDbVertex
100
AcDbPolyFaceMeshVertex
 10
8.221134345410581
 20
9.033533349748815
 30
5.000000000000002
 70
   192
  0
VERTEX
  5
2BE
330
2BC
100
AcDbEntity
  8
0
100
AcDbVertex
100
AcDbPolyFaceMeshVertex
 10
16.47147270113283
 20
12.46989103715715
 30
0.0000000000000055
 70
   192
  0
VERTEX
  5
2BF
330
2BC
100
AcDbEntity
  8
0
100
AcDbVertex
100
AcDbPolyFaceMeshVertex
 10
8.221134345410581
 20
14.03353334974881
 30
0.0000000000000055
 70
   192
  0
VERTEX
  5
2C0
330
2BC
100
AcDbEntity
  8
0
100
AcDbVertex
100
AcDbPolyFaceMeshVertex
 10
16.47147270113283
 20
7.469891037157159
 30
5.000000000000002
 70
   192
  0
VERTEX
  5
2C1
330
2BC
100
AcDbEntity
  8
0
100
AcDbFaceRecord
 10
0.0
 20
0.0
 30
0.0
 70
   128
 71
    -1
 72
     2
 73
     3
  0
VERTEX
  5
2C2
330
2BC
100
AcDbEntity
  8
0
100
AcDbFaceRecord
 10
0.0
 20
0.0
 30
0.0
 70
   128
 71
    -2
 72
     1
 73
     4
  0
SEQEND
  5
2C3
330
2BC
100
AcDbEntity
  8
0
  0
POLYLINE
  5
2C4
330
1F
100
AcDbEntity
  8
0
100
AcDbPolyFaceMesh
 66
     1
 10
0.0
 20
0.0
 30
0.0
 70
    64
 71
     4
 72
     2
  0
VERTEX
  5
2C5
330
2C4
100
AcDbEntity
  8
0
100
AcDbVertex
100
AcDbPolyFaceMeshVertex
 10
116.7910711140514
 20
5.29955745458729
 30
0.0000000000000041
 70
   192
  0
VERTEX
  5
2C6
330
2C4
100
AcDbEntity
  8
0
100
AcDbVertex
100
AcDbPolyFaceMeshVertex
 10
125.1799278156511
 20
0.6739149116378264
 30
4.999999999999999
 70
   192
  0
VERTEX
  5
2C7
330
2C4
100
AcDbEntity
  8
0
100
AcDbVertex
100
AcDbPolyFaceMeshVertex
 10
125.1799278156511
 20
5.673914911637818
 30
0.0000000000000034
 70
   192
  0
VERTEX
  5
2C8
330
2C4
100
AcDbEntity
  8
0
100
AcDbVertex
100
AcDbPolyFaceMeshVertex
 10
116.7910711140514
 20
0.2995574545872992
 30
5.0
 70
   192
  0
VERTEX
  5
2C9
330
2C4
100
AcDbEntity
  8
0
100
AcDbFaceRecord
 10
0.0
 20
0.0
 30
0.0
 70
   128
 71
    -1
 72
     2
 73
     3
  0
VERTEX
  5
2CA
330
2C4
100
AcDbEntity
  8
0
100
AcDbFaceRecord
 10
0.0
 20
0.0
 30
0.0
 70
   128
 71
    -2
 72
     1
 73
     4
  0
SEQEND
  5
2CB
330
2C4
100
AcDbEntity
  8
0
  0
POLYLINE
  5
2CC
330
1F
100
AcDbEntity
  8
0
100
AcDbPolyFaceMesh
 66
     1
 10
0.0
 20
0.0
 30
0.0
 70
    64
 71
     4
 72
     2
  0
VERTEX
  5
2CD
330
2CC
100
AcDbEntity
  8
0
100
AcDbVertex
100
AcDbPolyFaceMeshVertex
 10
74.8200721843493
 20
0.6739149116378828
 30
5.000000000000001
 70
   192
  0
VERTEX
  5
2CE
330
2CC
100
AcDbEntity
  8
0
100
AcDbVertex
100
AcDbPolyFaceMeshVertex
 10
83.20892888594898
 20
5.29955745458729
 30
0.0000000000000048
 70
   192
  0
VERTEX
  5
2CF
330
2CC
100
AcDbEntity
  8
0
100
AcDbVertex
100
AcDbPolyFaceMeshVertex
 10
74.8200721843493
 20
5.673914911637874
 30
0.0000000000000048
 70
   192
  0
VERTEX
  5
2D0
330
2CC
100
AcDbEntity
  8
0
100
AcDbVertex
100
AcDbPolyFaceMeshVertex
 10
83.20892888594898
 20
0.2995574545872992
 30
5.000000000000001
 70
   192
  0
VERTEX
  5
2D1
330
2CC
100
AcDbEntity
  8
0
100
AcDbFaceRecord
 10
0.0
 20
0.0
 30
0.0
 70
   128
 71
    -1
 72
     2
 73
     3
  0
VERTEX
  5
2D2
330
2CC
100
AcDbEntity
  8
0
100
AcDbFaceRecord
 10
0.0
 20
0.0
 30
0.0
 70
   128
 71
    -2
 72
     1
 73
     4
  0
SEQEND
  5
2D3
330
2CC
100
AcDbEntity
  8
0
  0
POLYLINE
  5
2D4
330
1F
100
AcDbEntity
  8
0
100
AcDbPolyFaceMesh
 66
     1
 10
0.0
 20
0.0
 30
0.0
 70
    64
 71
     4
 72
     2
  0
VERTEX
  5
2D5
330
2D4
100
AcDbEntity
  8
0
100
AcDbVertex
100
AcDbPolyFaceMeshVertex
 10
66.43922772899289
 20
1.197848572274413
 30
5.000000000000001
 70
   192
  0
VERTEX
  5
2D6
330
2D4
100
AcDbEntity
  8
0
100
AcDbVertex
100
AcDbPolyFaceMeshVertex
 10
74.8200721843493
 20
5.673914911637874
 30
0.0000000000000048
 70
   192
  0
VERTEX
  5
2D7
330
2D4
100
AcDbEntity
  8
0
100
AcDbVertex
100
AcDbPolyFaceMeshVertex
 10
66.43922772899289
 20
6.197848572274403
 30
0.0000000000000048
 70
   192
  0
VERTEX
  5
2D8
330
2D4
100
AcDbEntity
  8
0
100
AcDbVertex
100
AcDbPolyFaceMeshVertex
 10
74.8200721843493
 20
0.6739149116378828
 30
5.000000000000001
 70
   192
  0
VERTEX
  5
2D9
330
2D4
100
AcDbEntity
  8
0
100
AcDbFaceRecord
 10
0.0
 20
0.0
 30
0.0
 70
   128
 71
    -1
 72
     2
 73
     3
  0
VERTEX
  5
2DA
330
2D4
100
AcDbEntity
  8
0
100
AcDbFaceRecord
 10
0.0
 20
0.0
 30
0.0
 70
   128
 71
    -2
 72
     1
 73
     4
  0
SEQEND
  5
2DB
330
2D4
100
AcDbEntity
  8
0
  0
POLYLINE
  5
2DC
330
1F
100
AcDbEntity
  8
0
100
AcDbPolyFaceMesh
 66
     1
 10
0.0
 20
0.0
 30
0.0
 70
    64
 71
     4
 72
     2
  0
VERTEX
  5
2DD
330
2DC
100
AcDbEntity
  8
0
100
AcDbVertex
100
AcDbPolyFaceMeshVertex
 10
49.71223928873333
 20
2.693730100048261
 30
5.000000000000002
 70
   192
  0
VERTEX
  5
2DE
330
2DC
100
AcDbEntity
  8
0
100
AcDbVertex
100
AcDbPolyFaceMeshVertex
 10
41.41389963953452
 20
8.66025403784438
 30
0.0000000000000033
 70
   192
  0
VERTEX
  5
2DF
330
2DC
100
AcDbEntity
  8
0
100
AcDbVertex
100
AcDbPolyFaceMeshVertex
 10
41.37141782704222
 20
3.665201978086697
 30
5.000000000000002
 70
   192
  0
VERTEX
  5
2E0
330
2DC
100
AcDbEntity
  8
0
100
AcDbVertex
100
AcDbPolyFaceMeshVertex
 10
49.71223928873333
 20
7.693730100048252
 30
0.0000000000000055
 70
   192
  0
VERTEX
  5
2E1
330
2DC
100
AcDbEntity
  8
0
100
AcDbFaceRecord
 10
0.0
 20
0.0
 30
0.0
 70
   128
 71
    -1
 72
     2
 73
     3
  0
VERTEX
  5
2E2
330
2DC
100
AcDbEntity
  8
0
100
AcDbFaceRecord
 10
0.0
 20
0.0
 30
0.0
 70
   128
 71
    -2
 72
     1
 73
     4
  0
SEQEND
  5
2E3
330
2DC
100
AcDbEntity
  8
0
  0
POLYLINE
  5
2E4
330
1F
100
AcDbEntity
  8
0
100
AcDbPolyFaceMesh
 66
     1
 10
0.0
 20
0.0
 30
0.0
 70
    64
 71
     4
 72
     2
  0
VERTEX
  5
2E5
330
2E4
100
AcDbEntity
  8
0
100
AcDbVertex
100
AcDbPolyFaceMeshVertex
 10
0.000000000000361
 20
10.74409183759284
 30
5.000000000000002
 70
   192
  0
VERTEX
  5
2E6
330
2E4
100
AcDbEntity
  8
0
100
AcDbVertex
100
AcDbPolyFaceMeshVertex
 10
8.221134345410581
 20
14.03353334974881
 30
0.0000000000000055
 70
   192
  0
VERTEX
  5
2E7
330
2E4
100
AcDbEntity
  8
0
100
AcDbVertex
100
AcDbPolyFaceMeshVertex
 10
0.000000000000361
 20
15.74409183759283
 30
0.0000000000000055
 70
   192
  0
VERTEX
  5
2E8
330
2E4
100
AcDbEntity
  8
0
100
AcDbVertex
100
AcDbPolyFaceMeshVertex
 10
8.221134345410581
 20
9.033533349748815
 30
5.000000000000002
 70
   192
  0
VERTEX
  5
2E9
330
2E4
100
AcDbEntity
  8
0
100
AcDbFaceRecord
 10
0.0
 20
0.0
 30
0.0
 70
   128
 71
    -1
 72
     2
 73
     3
  0
VERTEX
  5
2EA
330
2E4
100
AcDbEntity
  8
0
100
AcDbFaceRecord
 10
0.0
 20
0.0
 30
0.0
 70
   128
 71
    -2
 72
     1
 73
     4
  0
SEQEND
  5
2EB
330
2E4
100
AcDbEntity
  8
0
  0
POLYLINE
  5
2EC
330
1F
100
AcDbEntity
  8
0
100
AcDbPolyFaceMesh
 66
     1
 10
0.0
 20
0.0
 30
0.0
 70
    64
 71
     4
 72
     2
  0
VERTEX
  5
2ED
330
2EC
100
AcDbEntity
  8
0
100
AcDbVertex
100
AcDbPolyFaceMeshVertex
 10
133.5607722710075
 20
6.197848572274347
 30
0.0000000000000034
 70
   192
  0
VERTEX
  5
2EE
330
2EC
100
AcDbEntity
  8
0
100
AcDbVertex
100
AcDbPolyFaceMeshVertex
 10
141.9309376976735
 20
1.871191720947284
 30
4.999999999999998
 70
   192
  0
VERTEX
  5
2EF
330
2EC
100
AcDbEntity
  8
0
100
AcDbVertex
100
AcDbPolyFaceMeshVertex
 10
141.9309376976735
 20
6.871191720947275
 30
0.0000000000000027
 70
   192
  0
VERTEX
  5
2F0
330
2EC
100
AcDbEntity
  8
0
100
AcDbVertex
100
AcDbPolyFaceMeshVertex
 10
133.5607722710075
 20
1.197848572274356
 30
4.999999999999999
 70
   192
  0
VERTEX
  5
2F1
330
2EC
100
AcDbEntity
  8
0
100
AcDbFaceRecord
 10
0.0
 20
0.0
 30
0.0
 70
   128
 71
    -1
 72
     2
 73
     3
  0
VERTEX
  5
2F2
330
2EC
100
AcDbEntity
  8
0
100
AcDbFaceRecord
 10
0.0
 20
0.0
 30
0.0
 70
   128
 71
    -2
 72
     1
 73
     4
  0
SEQEND
  5
2F3
330
2EC
100
AcDbEntity
  8
0
  0
POLYLINE
  5
2F4
330
1F
100
AcDbEntity
  8
0
100
AcDbPolyFaceMesh
 66
     1
 10
0.0
 20
0.0
 30
0.0
 70
    64
 71
     4
 72
     2
  0
VERTEX
  5
2F5
330
2F4
100
AcDbEntity
  8
0
100
AcDbVertex
100
AcDbPolyFaceMeshVertex
 10
125.1799278156511
 20
0.6739149116378264
 30
4.999999999999999
 70
   192
  0
VERTEX
  5
2F6
330
2F4
100
AcDbEntity
  8
0
100
AcDbVertex
100
AcDbPolyFaceMeshVertex
 10
133.5607722710075
 20
6.197848572274347
 30
0.0000000000000034
 70
   192
  0
VERTEX
  5
2F7
330
2F4
100
AcDbEntity
  8
0
100
AcDbVertex
100
AcDbPolyFaceMeshVertex
 10
125.1799278156511
 20
5.673914911637818
 30
0.0000000000000034
 70
   192
  0
VERTEX
  5
2F8
330
2F4
100
AcDbEntity
  8
0
100
AcDbVertex
100
AcDbPolyFaceMeshVertex
 10
133.5607722710075
 20
1.197848572274356
 30
4.999999999999999
 70
   192
  0
VERTEX
  5
2F9
330
2F4
100
AcDbEntity
  8
0
100
AcDbFaceRecord
 10
0.0
 20
0.0
 30
0.0
 70
   128
 71
    -1
 72
     2
 73
     3
  0
VERTEX
  5
2FA
330
2F4
100
AcDbEntity
  8
0
100
AcDbFaceRecord
 10
0.0
 20
0.0
 30
0.0
 70
   128
 71
    -2
 72
     1
 73
     4
  0
SEQEND
  5
2FB
330
2F4
100
AcDbEntity
  8
0
  0
POLYLINE
  5
2FC
330
1F
100
AcDbEntity
  8
0
100
AcDbPolyFaceMesh
 66
     1
 10
0.0
 20
0.0
 30
0.0
 70
    64
 71
     4
 72
     2
  0
VERTEX
  5
2FD
330
2FC
100
AcDbEntity
  8
0
100
AcDbVertex
100
AcDbPolyFaceMeshVertex
 10
91.60312850185117
 20
5.074895321564644
 30
0.0000000000000048
 70
   192
  0
VERTEX
  5
2FE
330
2FC
100
AcDbEntity
  8
0
100
AcDbVertex
100
AcDbPolyFaceMeshVertex
 10
100.0
 20
0.0
 30
5.0
 70
   192
  0
VERTEX
  5
2FF
330
2FC
100
AcDbEntity
  8
0
100
AcDbVertex
100
AcDbPolyFaceMeshVertex
 10
100.0
 20
4.999999999999991
 30
0.0000000000000041
 70
   192
  0
VERTEX
  5
300
330
2FC
100
AcDbEntity
  8
0
100
AcDbVertex
100
AcDbPolyFaceMeshVertex
 10
91.60312850185117
 20
0.074895321564653
 30
5.000000000000001
 70
   192
  0
VERTEX
  5
301
330
2FC
100
AcDbEntity
  8
0
100
AcDbFaceRecord
 10
0.0
 20
0.0
 30
0.0
 70
   128
 71
    -1
 72
     2
 73
     3
  0
VERTEX
  5
302
330
2FC
100
AcDbEntity
  8
0
100
AcDbFaceRecord
 10
0.0
 20
0.0
 30
0.0
 70
   128
 71
    -2
 72
     1
 73
     4
  0
SEQEND
  5
303
330
2FC
100
AcDbEntity
  8
0
  0
POLYLINE
  5
304
330
1F
100
AcDbEntity
  8
0
100
AcDbPolyFaceMesh
 66
     1
 10
0.0
 20
0.0
 30
0.0
 70
    64
 71
     4
 72
     2
  0
VERTEX
  5
305
330
304
100
AcDbEntity
  8
0
100
AcDbVertex
100
AcDbPolyFaceMeshVertex
 10
41.37141782704222
 20
3.665201978086697
 30
5.000000000000002
 70
   192
  0
VERTEX
  5
306
330
304
100
AcDbEntity
  8
0
100
AcDbVertex
100
AcDbPolyFaceMeshVertex
 10
33.04925196439479
 20
9.78529823297279
 30
0.0000000000000055
 70
   192
  0
VERTEX
  5
307
330
304
100
AcDbEntity
  8
0
100
AcDbVertex
100
AcDbPolyFaceMeshVertex
 10
33.04925196439479
 20
4.7852982329728
 30
5.000000000000002
 70
   192
  0
VERTEX
  5
308
330
304
100
AcDbEntity
  8
0
100
AcDbVertex
100
AcDbPolyFaceMeshVertex
 10
41.41389963953452
 20
8.66025403784438
 30
0.0000000000000033
 70
   192
  0
VERTEX
  5
309
330
304
100
AcDbEntity
  8
0
100
AcDbFaceRecord
 10
0.0
 20
0.0
 30
0.0
 70
   128
 71
    -1
 72
     2
 73
     3
  0
VERTEX
  5
30A
330
304
100
AcDbEntity
  8
0
100
AcDbFaceRecord
 10
0.0
 20
0.0
 30
0.0
 70
   128
 71
    -2
 72
     1
 73
     4
  0
SEQEND
  5
30B
330
304
100
AcDbEntity
  8
0
  0
POLYLINE
  5
30C
330
1F
100
AcDbEntity
  8
0
100
AcDbPolyFaceMesh
 66
     1
 10
0.0
 20
0.0
 30
0.0
 70
    64
 71
     4
 72
     2
  0
VERTEX
  5
30D
330
30C
100
AcDbEntity
  8
0
100
AcDbVertex
100
AcDbPolyFaceMeshVertex
 10
49.71223928873333
 20
7.693730100048252
 30
0.0000000000000055
 70
   192
  0
VERTEX
  5
30E
330
30C
100
AcDbEntity
  8
0
100
AcDbVertex
100
AcDbPolyFaceMeshVertex
 10
58.06906230232683
 20
1.871191720947307
 30
5.000000000000001
 70
   192
  0
VERTEX
  5
30F
330
30C
100
AcDbEntity
  8
0
100
AcDbVertex
100
AcDbPolyFaceMeshVertex
 10
58.06906230232683
 20
6.871191720947298
 30
0.0000000000000048
 70
   192
  0
VERTEX
  5
310
330
30C
100
AcDbEntity
  8
0
100
AcDbVertex
100
AcDbPolyFaceMeshVertex
 10
49.71223928873333
 20
2.693730100048261
 30
5.000000000000002
 70
   192
  0
VERTEX
  5
311
330
30C
100
AcDbEntity
  8
0
100
AcDbFaceRecord
 10
0.0
 20
0.0
 30
0.0
 70
   128
 71
    -1
 72
     2
 73
     3
  0
VERTEX
  5
312
330
30C
100
AcDbEntity
  8
0
100
AcDbFaceRecord
 10
0.0
 20
0.0
 30
0.0
 70
   128
 71
    -2
 72
     1
 73
     4
  0
SEQEND
  5
313
330
30C
100
AcDbEntity
  8
0
  0
POLYLINE
  5
314
330
1F
100
AcDbEntity
  8
0
100
AcDbPolyFaceMesh
 66
     1
 10
0.0
 20
0.0
 30
0.0
 70
    64
 71
     4
 72
     2
  0
VERTEX
  5
315
330
314
100
AcDbEntity
  8
0
100
AcDbVertex
100
AcDbPolyFaceMeshVertex
 10
100.0
 20
0.0
 30
5.0
 70
   192
  0
VERTEX
  5
316
330
314
100
AcDbEntity
  8
0
100
AcDbVertex
100
AcDbPolyFaceMeshVertex
 10
108.3968714981495
 20
5.074895321564576
 30
0.0000000000000041
 70
   192
  0
VERTEX
  5
317
330
314
100
AcDbEntity
  8
0
100
AcDbVertex
100
AcDbPolyFaceMeshVertex
 10
100.0
 20
4.999999999999991
 30
0.0000000000000041
 70
   192
  0
VERTEX
  5
318
330
314
100
AcDbEntity
  8
0
100
AcDbVertex
100
AcDbPolyFaceMeshVertex
 10
108.3968714981495
 20
0.0748953215645853
 30
5.0
 70
   192
  0
VERTEX
  5
319
330
314
100
AcDbEntity
  8
0
100
AcDbFaceRecord
 10
0.0
 20
0.0
 30
0.0
 70
   128
 71
    -1
 72
     2
 73
     3
  0
VERTEX
  5
31A
330
314
100
AcDbEntity
  8
0
100
AcDbFaceRecord
 10
0.0
 20
0.0
 30
0.0
 70
   128
 71
    -2
 72
     1
 73
     4
  0
SEQEND
  5
31B
330
314
100
AcDbEntity
  8
0
  0
POLYLINE
  5
31C
330
1F
100
AcDbEntity
  8
0
100
AcDbPolyFaceMesh
 66
     1
 10
0.0
 20
0.0
 30
0.0
 70
    64
 71
     4
 72
     2
  0
VERTEX
  5
31D
330
31C
100
AcDbEntity
  8
0
100
AcDbVertex
100
AcDbPolyFaceMeshVertex
 10
24.74838981172514
 20
6.053662450380333
 30
5.000000000000002
 70
   192
  0
VERTEX
  5
31E
330
31C
100
AcDbEntity
  8
0
100
AcDbVertex
100
AcDbPolyFaceMeshVertex
 10
33.04925196439479
 20
9.78529823297279
 30
0.0000000000000055
 70
   192
  0
VERTEX
  5
31F
330
31C
100
AcDbEntity
  8
0
100
AcDbVertex
100
AcDbPolyFaceMeshVertex
 10
24.74838981172514
 20
11.05366245038032
 30
0.0000000000000055
 70
   192
  0
VERTEX
  5
320
330
31C
100
AcDbEntity
  8
0
100
AcDbVertex
100
AcDbPolyFaceMeshVertex
 10
33.04925196439479
 20
4.7852982329728
 30
5.000000000000002
 70
   192
  0
VERTEX
  5
321
330
31C
100
AcDbEntity
  8
0
100
AcDbFaceRecord
 10
0.0
 20
0.0
 30
0.0
 70
   128
 71
    -1
 72
     2
 73
     3
  0
VERTEX
  5
322
330
31C
100
AcDbEntity
  8
0
100
AcDbFaceRecord
 10
0.0
 20
0.0
 30
0.0
 70
   128
 71
    -2
 72
     1
 73
     4
  0
SEQEND
  5
323
330
31C
100
AcDbEntity
  8
0
  0
POLYLINE
  5
324
330
1F
100
AcDbEntity
  8
0
100
AcDbPolyFaceMesh
 66
     1
 10
0.0
 20
0.0
 30
0.0
 70
    64
 71
     4
 72
     2
  0
VERTEX
  5
325
330
324
100
AcDbEntity
  8
0
100
AcDbVertex
100
AcDbPolyFaceMeshVertex
 10
16.47147270113283
 20
7.469891037157159
 30
5.000000000000002
 70
   192
  0
VERTEX
  5
326
330
324
100
AcDbEntity
  8
0
100
AcDbVertex
100
AcDbPolyFaceMeshVertex
 10
24.74838981172514
 20
11.05366245038032
 30
0.0000000000000055
 70
   192
  0
VERTEX
  5
327
330
324
100
AcDbEntity
  8
0
100
AcDbVertex
100
AcDbPolyFaceMeshVertex
 10
16.47147270113283
 20
12.46989103715715
 30
0.0000000000000055
 70
   192
  0
VERTEX
  5
328
330
324
100
AcDbEntity
  8
0
100
AcDbVertex
100
AcDbPolyFaceMeshVertex
 10
24.74838981172514
 20
6.053662450380333
 30
5.000000000000002
 70
   192
  0
VERTEX
  5
329
330
324
100
AcDbEntity
  8
0
100
AcDbFaceRecord
 10
0.0
 20
0.0
 30
0.0
 70
   128
 71
    -1
 72
     2
 73
     3
  0
VERTEX
  5
32A
330
324
100
AcDbEntity
  8
0
100
AcDbFaceRecord
 10
0.0
 20
0.0
 30
0.0
 70
   128
 71
    -2
 72
     1
 73
     4
  0
SEQEND
  5
32B
330
324
100
AcDbEntity
  8
0
  0
POLYLINE
  5
32C
330
1F
100
AcDbEntity
  8
0
100
AcDbPolyFaceMesh
 66
     1
 10
0.0
 20
0.0
 30
0.0
 70
    64
 71
     4
 72
     2
  0
VERTEX
  5
32D
330
32C
100
AcDbEntity
  8
0
100
AcDbVertex
100
AcDbPolyFaceMeshVertex
 10
58.06906230232683
 20
1.871191720947307
 30
5.000000000000001
 70
   192
  0
VERTEX
  5
32E
330
32C
100
AcDbEntity
  8
0
100
AcDbVertex
100
AcDbPolyFaceMeshVertex
 10
66.43922772899289
 20
6.197848572274403
 30
0.0000000000000048
 70
   192
  0
VERTEX
  5
32F
330
32C
100
AcDbEntity
  8
0
100
AcDbVertex
100
AcDbPolyFaceMeshVertex
 10
58.06906230232683
 20
6.871191720947298
 30
0.0000000000000048
 70
   192
  0
VERTEX
  5
330
330
32C
100
AcDbEntity
  8
0
100
AcDbVertex
100
AcDbPolyFaceMeshVertex
 10
66.43922772899289
 20
1.197848572274413
 30
5.000000000000001
 70
   192
  0
VERTEX
  5
331
330
32C
100
AcDbEntity
  8
0
100
AcDbFaceRecord
 10
0.0
 20
0.0
 30
0.0
 70
   128
 71
    -1
 72
     2
 73
     3
  0
VERTEX
  5
332
330
32C
100
AcDbEntity
  8
0
100
AcDbFaceRecord
 10
0.0
 20
0.0
 30
0.0
 70
   128
 71
    -2
 72
     1
 73
     4
  0
SEQEND
  5
333
330
32C
100
AcDbEntity
  8
0
  0
ENDSEC
  0
SECTION
  2
OBJECTS
  0
DICTIONARY
  5
C
330
0
100
AcDbDictionary
  3
ACAD_GROUP
350
D
  3
ACAD_LAYOUT
350
1A
  3
ACAD_MATERIAL
350
43
  3
ACAD_MLEADERSTYLE
350
356
  3
ACAD_MLINESTYLE
350
17
  3
ACAD_PLOTSETTINGS
350
19
  3
ACAD_SCALELIST
350
47
  3
ACAD_VISUALSTYLE
350
2A
  3
ACDBHEADERROUNDTRIPXREC
350
334
  3
ACDBVARIABLEDICTIONARY
350
354
  0
DICTIONARY
  5
35B
330
8
100
AcDbDictionary
280
     1
  3
ACAD_XREC_ROUNDTRIP
360
35C
  0
DICTIONARY
  5
D
102
{ACAD_REACTORS
330
C
102
}
330
C
100
AcDbDictionary
  0
DICTIONARY
  5
1A
102
{ACAD_REACTORS
330
C
102
}
330
C
100
AcDbDictionary
  0
DICTIONARY
  5
43
102
{ACAD_REACTORS
330
C
102
}
330
C
100
AcDbDictionary
  3
BYBLOCK
350
45
  3
BYLAYER
350
44
  3
GLOBAL
350
46
  0
DICTIONARY
  5
356
102
{ACAD_REACTORS
330
C
102
}
330
C
100
AcDbDictionary
  0
DICTIONARY
  5
17
102
{ACAD_REACTORS
330
C
102
}
330
C
100
AcDbDictionary
  3
STANDARD
350
18
  0
DICTIONARY
  5
19
102
{ACAD_REACTORS
330
C
102
}
330
C
100
AcDbDictionary
  0
DICTIONARY
  5
47
102
{ACAD_REACTORS
330
C
102
}
330
C
100
AcDbDictionary
  3
A0
350
48
  3
A1
350
49
  3
A2
350
4A
  3
A3
350
4B
  3
A4
350
4C
  3
A5
350
4D
  3
A6
350
4E
  3
A7
350
4F
  3
A8
350
50
  3
A9
350
51
  3
B0
350
52
  3
B1
350
53
  3
B2
350
54
  3
B3
350
55
  3
B4
350
56
  3
B5
350
57
  3
B6
350
58
  3
B7
350
59
  3
B8
350
5A
  3
B9
350
5B
  3
C0
350
5C
  3
C1
350
5D
  3
C2
350
5E
  3
C3
350
5F
  3
C4
350
60
  3
C5
350
61
  3
C6
350
62
  3
C7
350
63
  3
C8
350
64
  3
C9
350
65
  3
D0
350
66
  3
D1
350
67
  3
D2
350
68
  0
DICTIONARY
  5
2A
102
{ACAD_REACTORS
330
C
102
}
330
C
100
AcDbDictionary
  3
2DWIREFRAME
350
2F
  3
BASIC
350
32
  3
BRIGHTEN
350
36
  3
COLORCHANGE
350
3A
  3
CONCEPTUAL
350
34
  3
DIM
350
35
  3
EDGECOLOROFF
350
3D
  3
FACEPATTERN
350
39
  3
FLAT
350
2B
  3
FLATWITHEDGES
350
2C
  3
GOURAUD
350
2D
  3
GOURAUDWITHEDGES
350
2E
  3
HIDDEN
350
31
  3
JITTEROFF
350
3B
  3
LINEPATTERN
350
38
  3
OVERHANGOFF
350
3C
  3
REALISTIC
350
33
  3
SHADED
350
42
  3
SHADED_WITH_EDGES
350
41
  3
SHADES_OF_GRAY
350
3E
  3
SKETCHY
350
3F
  3
THICKEN
350
37
  3
WIREFRAME
350
30
  3
X-RAY
350
40
  0
DICTIONARY
  5
334
102
{ACAD_REACTORS
330
C
102
}
330
C
100
AcDbDictionary
  3
CEPSNTYPE
350
33D
  3
DIMSTYLEDATA
350
353
  3
FINGERPRINTGUID
350
33E
  3
HYPERLINKBASE
350
337
  3
INSUNITS
350
33C
  3
LAYOUTDICT
350
339
  3
LWETCUNION
350
33B
  3
PLOTSETDICT
350
33A
  3
PSVPSCALE
350
340
  3
PUCSBASE
350
343
  3
PUCSORGBACK
350
349
  3
PUCSORGBOTTOM
350
345
  3
PUCSORGFRONT
350
348
  3
PUCSORGLEFT
350
346
  3
PUCSORGRIGHT
350
347
  3
PUCSORGTOP
350
344
  3
PUCSORTHOREF
350
341
  3
PUCSORTHOVIEW
350
342
  3
STYLESHEET
350
338
  3
TSTACKALIGN
350
335
  3
TSTACKSIZE
350
336
  3
UCSBASE
350
34C
  3
UCSORGBACK
350
352
  3
UCSORGBOTTOM
350
34E
  3
UCSORGFRONT
350
351
  3
UCSORGLEFT
350
34F
  3
UCSORGRIGHT
350
350
  3
UCSORGTOP
350
34D
  3
UCSORTHOREF
350
34A
  3
UCSORTHOVIEW
350
34B
  3
VERSIONGUID
350
33F
  0
DICTIONARY
  5
354
102
{ACAD_REACTORS
330
C
102
}
330
C
100
AcDbDictionary
  3
CANNOSCALE
350
35D
  3
DIMASSOC
350
359
  3
HIDETEXT
350
35A
  3
MSLTSCALE
350
35E
  0
XRECORD
  5
35C
102
{ACAD_REACTORS
330
35B
102
}
330
35B
100
AcDbXrecord
102
VTR_0.000_0.000_1.000_1.000_GRIDDISPLAY
 70
     3
102
VTR_0.000_0.000_1.000_1.000_GRIDMAJOR
 70
     5
102
VTR_0.000_0.000_1.000_1.000_DEFAULTLIGHTING
280
     1
102
VTR_0.000_0.000_1.000_1.000_DEFAULTLIGHTINGTYPE
 70
     1
102
VTR_0.000_0.000_1.000_1.000_BRIGHTNESS
141
0.0
102
VTR_0.000_0.000_1.000_1.000_CONTRAST
142
0.0
  0
MATERIAL
  5
45
102
{ACAD_REACTORS
330
43
102
}
102
{ACAD_XDICTIONARY
360
361
102
}
330
43
100
AcDbMaterial
  1
BYBLOCK
  0
MATERIAL
  5
44
102
{ACAD_REACTORS
330
43
102
}
102
{ACAD_XDICTIONARY
360
35F
102
}
330
43
100
AcDbMaterial
  1
BYLAYER
  0
MATERIAL
  5
46
102
{ACAD_REACTORS
330
43
102
}
102
{ACAD_XDICTIONARY
360
363
102
}
330
43
100
AcDbMaterial
  1
GLOBAL
  0
MLINESTYLE
  5
18
102
{ACAD_REACTORS
330
17
102
}
330
17
100
AcDbMlineStyle
  2
Standard
 70
     0
  3

 62
   256
 51
90.0
 52
90.0
 71
     2
 49
0.5
 62
   256
  6
BYLAYER
 49
-0.5
 62
   256
  6
BYLAYER
  0
ACAD_PROXY_OBJECT
  5
48
102
{ACAD_REACTORS
330
47
102
}
330
47
100
AcDbProxyObject
 90
      499
 91
      503
 93
       41
310
903313A31580
  0
ACAD_PROXY_OBJECT
  5
49
102
{ACAD_REACTORS
330
47
102
}
330
47
100
AcDbProxyObject
 90
      499
 91
      503
 93
      105
310
903313A324000000000000004000
  0
ACAD_PROXY_OBJECT
  5
4A
102
{ACAD_REACTORS
330
47
102
}
330
47
100
AcDbProxyObject
 90
      499
 91
      503
 93
      105
310
903313A344000000000000104000
  0
ACAD_PROXY_OBJECT
  5
4B
102
{ACAD_REACTORS
330
47
102
}
330
47
100
AcDbProxyObject
 90
      499
 91
      503
 93
      105
310
903313A354000000000000144000
  0
ACAD_PROXY_OBJECT
  5
4C
102
{ACAD_REACTORS
330
47
102
}
330
47
100
AcDbProxyObject
 90
      499
 91
      503
 93
      105
310
903313A384000000000000204000
  0
ACAD_PROXY_OBJECT
  5
4D
102
{ACAD_REACTORS
330
47
102
}
330
47
100
AcDbProxyObject
 90
      499
 91
      503
 93
      113
310
904313A31304000000000000244000
  0
ACAD_PROXY_OBJECT
  5
4E
102
{ACAD_REACTORS
330
47
102
}
330
47
100
AcDbProxyObject
 90
      499
 91
      503
 93
      113
310
904313A31364000000000000304000
  0
ACAD_PROXY_OBJECT
  5
4F
102
{ACAD_REACTORS
330
47
102
}
330
47
100
AcDbProxyObject
 90
      499
 91
      503
 93
      113
310
904313A32304000000000000344000
  0
ACAD_PROXY_OBJECT
  5
50
102
{ACAD_REACTORS
330
47
102
}
330
47
100
AcDbProxyObject
 90
      499
 91
      503
 93
      113
310
904313A333040000000000003E4000
  0
ACAD_PROXY_OBJECT
  5
51
102
{ACAD_REACTORS
330
47
102
}
330
47
100
AcDbProxyObject
 90
      499
 91
      503
 93
      113
310
904313A34304000000000000444000
  0
ACAD_PROXY_OBJECT
  5
52
102
{ACAD_REACTORS
330
47
102
}
330
47
100
AcDbProxyObject
 90
      499
 91
      503
 93
      113
310
904313A35304000000000000494000
  0
ACAD_PROXY_OBJECT
  5
53
102
{ACAD_REACTORS
330
47
102
}
330
47
100
AcDbProxyObject
 90
      499
 91
      503
 93
      121
310
905313A3130304000000000000594000
  0
ACAD_PROXY_OBJECT
  5
54
102
{ACAD_REACTORS
330
47
102
}
330
47
100
AcDbProxyObject
 90
      499
 91
      503
 93
      105
310
903323A310000000000000010100
  0
ACAD_PROXY_OBJECT
  5
55
102
{ACAD_REACTORS
330
47
102
}
330
47
100
AcDbProxyObject
 90
      499
 91
      503
 93
      105
310
903343A310000000000000410100
  0
ACAD_PROXY_OBJECT
  5
56
102
{ACAD_REACTORS
330
47
102
}
330
47
100
AcDbProxyObject
 90
      499
 91
      503
 93
      105
310
903383A310000000000000810100
  0
ACAD_PROXY_OBJECT
  5
57
102
{ACAD_REACTORS
330
47
102
}
330
47
100
AcDbProxyObject
 90
      499
 91
      503
 93
      113
310
90431303A310000000000000910100
  0
ACAD_PROXY_OBJECT
  5
58
102
{ACAD_REACTORS
330
47
102
}
330
47
100
AcDbProxyObject
 90
      499
 91
      503
 93
      121
310
9053130303A310000000000001650100
  0
ACAD_PROXY_OBJECT
  5
59
102
{ACAD_REACTORS
330
47
102
}
330
47
100
AcDbProxyObject
 90
      499
 91
      503
 93
      257
310
90E312F31323822203D2031272D3022000000000000200FC000000000000284000
  0
ACAD_PROXY_OBJECT
  5
5A
102
{ACAD_REACTORS
330
47
102
}
330
47
100
AcDbProxyObject
 90
      499
 91
      503
 93
      249
310
90D312F363422203D2031272D3022000000000000240FC000000000000284000
  0
ACAD_PROXY_OBJECT
  5
5B
102
{ACAD_REACTORS
330
47
102
}
330
47
100
AcDbProxyObject
 90
      499
 91
      503
 93
      249
310
90D312F333222203D2031272D3022000000000000280FC000000000000284000
  0
ACAD_PROXY_OBJECT
  5
5C
102
{ACAD_REACTORS
330
47
102
}
330
47
100
AcDbProxyObject
 90
      499
 91
      503
 93
      249
310
90D312F313622203D2031272D30220000000000002C0FC000000000000284000
  0
ACAD_PROXY_OBJECT
  5
5D
102
{ACAD_REACTORS
330
47
102
}
330
47
100
AcDbProxyObject
 90
      499
 91
      503
 93
      249
310
90D332F333222203D2031272D30220000000000002E0FC000000000000284000
  0
ACAD_PROXY_OBJECT
  5
5E
102
{ACAD_REACTORS
330
47
102
}
330
47
100
AcDbProxyObject
 90
      499
 91
      503
 93
      241
310
90C312F3822203D2031272D3022000000000000300FC000000000000284000
  0
ACAD_PROXY_OBJECT
  5
5F
102
{ACAD_REACTORS
330
47
102
}
330
47
100
AcDbProxyObject
 90
      499
 91
      503
 93
      249
310
90D332F313622203D2031272D3022000000000000320FC000000000000284000
  0
ACAD_PROXY_OBJECT
  5
60
102
{ACAD_REACTORS
330
47
102
}
330
47
100
AcDbProxyObject
 90
      499
 91
      503
 93
      241
310
90C312F3422203D2031272D3022000000000000340FC000000000000284000
  0
ACAD_PROXY_OBJECT
  5
61
102
{ACAD_REACTORS
330
47
102
}
330
47
100
AcDbProxyObject
 90
      499
 91
      503
 93
      241
310
90C332F3822203D2031272D3022000000000000360FC000000000000284000
  0
ACAD_PROXY_OBJECT
  5
62
102
{ACAD_REACTORS
330
47
102
}
330
47
100
AcDbProxyObject
 90
      499
 91
      503
 93
      241
310
90C312F3222203D2031272D3022000000000000380FC000000000000284000
  0
ACAD_PROXY_OBJECT
  5
63
102
{ACAD_REACTORS
330
47
102
}
330
47
100
AcDbProxyObject
 90
      499
 91
      503
 93
      241
310
90C332F3422203D2031272D30220000000000003A0FC000000000000284000
  0
ACAD_PROXY_OBJECT
  5
64
102
{ACAD_REACTORS
330
47
102
}
330
47
100
AcDbProxyObject
 90
      499
 91
      503
 93
      161
310
90A3122203D2031272D30224000000000000284000
  0
ACAD_PROXY_OBJECT
  5
65
102
{ACAD_REACTORS
330
47
102
}
330
47
100
AcDbProxyObject
 90
      499
 91
      503
 93
      257
310
90E312D312F3222203D2031272D30220000000000003E0FC000000000000284000
  0
ACAD_PROXY_OBJECT
  5
66
102
{ACAD_REACTORS
330
47
102
}
330
47
100
AcDbProxyObject
 90
      499
 91
      503
 93
      225
310
90A3322203D2031272D302200000000000002100000000000000284000
  0
ACAD_PROXY_OBJECT
  5
67
102
{ACAD_REACTORS
330
47
102
}
330
47
100
AcDbProxyObject
 90
      499
 91
      503
 93
      225
310
90A3622203D2031272D302200000000000006100000000000000284000
  0
ACAD_PROXY_OBJECT
  5
68
102
{ACAD_REACTORS
330
47
102
}
330
47
100
AcDbProxyObject
 90
      499
 91
      503
 93
      249
310
90D31272D3022203D2031272D30220000000000000A100000000000000284000
  0
ACAD_PROXY_OBJECT
  5
2F
102
{ACAD_REACTORS
330
2A
102
}
330
2A
100
AcDbProxyObject
 90
      499
 91
      501
 93
      436
310
42CC9915DA5C99599C985B595049028333333333333E33F0000000000000F90107901411070040501600405405064090741402480A0340
1001
ACAD
1000
AcDbSavedByObjectVersion
1070
     0
  0
ACAD_PROXY_OBJECT
  5
32
102
{ACAD_REACTORS
330
2A
102
}
330
2A
100
AcDbProxyObject
 90
      499
 91
      501
 93
      388
310
4150985CDA58D07406404333333333333E33F0000000000000F90107A41107004050150841D405064090741402480A0350
1001
ACAD
1000
AcDbSavedByObjectVersion
1070
     0
  0
ACAD_PROXY_OBJECT
  5
36
102
{ACAD_REACTORS
330
2A
102
}
330
2A
100
AcDbProxyObject
 90
      499
 91
      501
 93
      428
310
42109C9A59DA1D195B90C409028333333333333E33F0000000000000F9010790141107004050150841D405064090741402480A029950
1001
ACAD
1000
AcDbSavedByObjectVersion
1070
     0
  0
ACAD_PROXY_OBJECT
  5
3A
102
{ACAD_REACTORS
330
2A
102
}
330
2A
100
AcDbProxyObject
 90
      499
 91
      501
 93
      452
310
42D0DBDB1BDC90DA185B99D95104090240C333333333333E33F0000000000000F90108901411070040501508421405064090741402480A0350
1001
ACAD
1000
AcDbSavedByObjectVersion
1070
     0
  0
ACAD_PROXY_OBJECT
  5
34
102
{ACAD_REACTORS
330
2A
102
}
330
2A
100
AcDbProxyObject
 90
      499
 91
      501
 93
      500
310
4290DBDB98D95C1D1D585B10940D028333333333333E33F0000000000000F90107902409070040501000000000018199010841D405064090740C02480A0340
1001
ACAD
1000
AcDbSavedByObjectVersion
1070
     0
  0
ACAD_PROXY_OBJECT
  5
35
102
{ACAD_REACTORS
330
2A
102
}
330
2A
100
AcDbProxyObject
 90
      499
 91
      501
 93
      412
310
40D11A5B50B409028333333333333E33F0000000000000F9010790141107004050150841D405064090741402480A02677FFFFFD0
1001
ACAD
1000
AcDbSavedByObjectVersion
1070
     0
  0
ACAD_PROXY_OBJECT
  5
3D
102
{ACAD_REACTORS
330
2A
102
}
330
2A
100
AcDbProxyObject
 90
      499
 91
      501
 93
      452
310
43115919D950DBDB1BDC93D999916409028333333333333E33F0000000000000F9010790141107004050150841D405064090741402480A0350
1001
ACAD
1000
AcDbSavedByObjectVersion
1070
     0
  0
ACAD_PROXY_OBJECT
  5
39
102
{ACAD_REACTORS
330
2A
102
}
330
2A
100
AcDbProxyObject
 90
      499
 91
      501
 93
      444
310
42D19858D95C185D1D195C9B90F409028333333333333E33F0000000000000F9010790141107004050150841D405064090741402480A0350
1001
ACAD
1000
AcDbSavedByObjectVersion
1070
     0
  0
ACAD_PROXY_OBJECT
  5
2B
102
{ACAD_REACTORS
330
2A
102
}
330
2A
100
AcDbProxyObject
 90
      499
 91
      501
 93
      380
310
41119B185D240901404333333333333E33F0000000000000F9010740A907004050150841D405064090741402480A1B50
1001
ACAD
1000
AcDbSavedByObjectVersion
1070
     0
  0
ACAD_PROXY_OBJECT
  5
2C
102
{ACAD_REACTORS
330
2A
102
}
330
2A
100
AcDbProxyObject
 90
      499
 91
      501
 93
      468
310
43519B185D15DA5D1A115919D95CD0140901404333333333333E33F0000000000000F90107409019070040501600405405064090741402480A1B50
1001
ACAD
1000
AcDbSavedByObjectVersion
1070
     0
  0
ACAD_PROXY_OBJECT
  5
2D
102
{ACAD_REACTORS
330
2A
102
}
330
2A
100
AcDbProxyObject
 90
      499
 91
      501
 93
      404
310
41D1DBDD5C985D5910240902404333333333333E33F0000000000000F9010740A9070040501641D405064090741402480A1B50
1001
ACAD
1000
AcDbSavedByObjectVersion
1070
     0
  0
ACAD_PROXY_OBJECT
  5
2E
102
{ACAD_REACTORS
330
2A
102
}
330
2A
100
AcDbProxyObject
 90
      499
 91
      501
 93
      492
310
4411DBDD5C985D5915DA5D1A115919D95CD0340902404333333333333E33F0000000000000F90107409019070040501600405405064090741402480A1B50
1001
ACAD
1000
AcDbSavedByObjectVersion
1070
     0
  0
ACAD_PROXY_OBJECT
  5
31
102
{ACAD_REACTORS
330
2A
102
}
330
2A
100
AcDbProxyObject
 90
      499
 91
      501
 93
      476
310
41921A5919195B90640502408333333333333E33F0000000000000F901079024090700405020000000000001110200405405064090740C02480A0340
1001
ACAD
1000
AcDbSavedByObjectVersion
1070
     0
  0
ACAD_PROXY_OBJECT
  5
3B
102
{ACAD_REACTORS
330
2A
102
}
330
2A
100
AcDbProxyObject
 90
      499
 91
      501
 93
      428
310
42529A5D1D195C93D999914409028333333333333E33F0000000000000F9010790141107004050150A41D405064090741402480A0350
1001
ACAD
1000
AcDbSavedByObjectVersion
1070
     0
  0
ACAD_PROXY_OBJECT
  5
38
102
{ACAD_REACTORS
330
2A
102
}
330
2A
100
AcDbProxyObject
 90
      499
 91
      501
 93
      444
310
42D31A5B995C185D1D195C9B90E409028333333333333E33F0000000000000F9010790141107004050750841D405064090741402483A0350
1001
ACAD
1000
AcDbSavedByObjectVersion
1070
     0
  0
ACAD_PROXY_OBJECT
  5
3C
102
{ACAD_REACTORS
330
2A
102
}
330
2A
100
AcDbProxyObject
 90
      499
 91
      501
 93
      444
310
42D3DD995C9A185B99D3D999915409028333333333333E33F0000000000000F9010790141107004050150941D405064090741402480A0350
1001
ACAD
1000
AcDbSavedByObjectVersion
1070
     0
  0
ACAD_PROXY_OBJECT
  5
33
102
{ACAD_REACTORS
330
2A
102
}
330
2A
100
AcDbProxyObject
 90
      499
 91
      501
 93
      428
310
425499585B1A5CDD1A58D08409038333333333333E33F0000000000000F9010740A907004050150800405405064090740C02480A1B40
1001
ACAD
1000
AcDbSavedByObjectVersion
1070
     0
  0
ACAD_PROXY_OBJECT
  5
42
102
{ACAD_REACTORS
330
2A
102
}
330
2A
100
AcDbProxyObject
 90
      499
 91
      501
 93
      420
310
4194DA1859195911B40902404333333333333E33F0000000000000F9010740A41107004050150800405405064090840C02480A0B40
1001
ACAD
1000
AcDbSavedByObjectVersion
1070
     0
  0
ACAD_PROXY_OBJECT
  5
41
102
{ACAD_REACTORS
330
2A
102
}
330
2A
100
AcDbProxyObject
 90
      499
 91
      501
 93
      516
310
4454DA18591959081DDA5D1A08195919D95CD1A40902404333333333333E33F0000000000000F901074090142907004050250800405405064090740C02480A0B40
1001
ACAD
1000
AcDbSavedByObjectVersion
1070
     0
  0
ACAD_PROXY_OBJECT
  5
3E
102
{ACAD_REACTORS
330
2A
102
}
330
2A
100
AcDbProxyObject
 90
      499
 91
      501
 93
      532
310
4394DA1859195CC81BD98811DC985E5174090240C333333333333E33F0000000000000F901079024090741D01000000000000111010841D405064090740C02480A0340
1001
ACAD
1000
AcDbSavedByObjectVersion
1070
     0
  0
ACAD_PROXY_OBJECT
  5
3F
102
{ACAD_REACTORS
330
2A
102
}
330
2A
100
AcDbProxyObject
 90
      499
 91
      501
 93
      476
310
41D4DAD95D18DA1E51840502408333333333333E33F0000000000000F901079024090741D01000000000000111010B41D405064090741802480A0340
1001
ACAD
1000
AcDbSavedByObjectVersion
1070
     0
  0
ACAD_PROXY_OBJECT
  5
37
102
{ACAD_REACTORS
330
2A
102
}
330
2A
100
AcDbProxyObject
 90
      499
 91
      501
 93
      412
310
41D51A1A58DAD95B90D409028333333333333E33F0000000000000F9010790141107004050150C41D405064090741402480A0350
1001
ACAD
1000
AcDbSavedByObjectVersion
1070
     0
  0
ACAD_PROXY_OBJECT
  5
30
102
{ACAD_REACTORS
330
2A
102
}
330
2A
100
AcDbProxyObject
 90
      499
 91
      501
 93
      420
310
4255DA5C99599C985B595059028333333333333E33F0000000000000F90107901411070040501600405405064090740C02480A0340
1001
ACAD
1000
AcDbSavedByObjectVersion
1070
     0
  0
ACAD_PROXY_OBJECT
  5
40
102
{ACAD_REACTORS
330
2A
102
}
330
2A
100
AcDbProxyObject
 90
      499
 91
      501
 93
      404
310
41560B54985E51940902404000000000000E03F0000000000000F9010740501907004050150841D405064090740C02480A1B40
1001
ACAD
1000
AcDbSavedByObjectVersion
1070
     0
  0
XRECORD
  5
33D
102
{ACAD_REACTORS
330
334
102
}
330
334
100
AcDbXrecord
 90
        0
  0
XRECORD
  5
353
102
{ACAD_REACTORS
330
334
102
}
330
334
100
AcDbXrecord
1000
DSTYLE
1002
{
1070
   171
 70
     2
1070
   143
 40
25.4
1070
   274
 70
     2
1070
    41
 40
0.18
1070
   141
 40
0.09
1070
   271
 70
     4
1070
    43
 40
0.38
1070
   278
 70
    46
1070
    44
 40
0.18
1070
    42
 40
0.0625
1070
   147
 40
0.09
1070
    77
 70
     0
1070
   272
 70
     4
1070
    73
 70
     1
1070
   172
 70
     0
1070
    74
 70
     1
1070
   283
 70
     1
1070
   340
340
11
1070
   140
 40
0.18
1070
   284
 70
     0
1070
    78
 70
     0
1002
}
  0
XRECORD
  5
33E
102
{ACAD_REACTORS
330
334
102
}
330
334
100
AcDbXrecord
  1
{EDF4026B-2491-4DFC-9125-84460DDAB429}
  0
XRECORD
  5
337
102
{ACAD_REACTORS
330
334
102
}
330
334
100
AcDbXrecord
  1

  0
XRECORD
  5
33C
102
{ACAD_REACTORS
330
334
102
}
330
334
100
AcDbXrecord
 90
        4
  0
XRECORD
  5
339
102
{ACAD_REACTORS
330
334
102
}
330
334
100
AcDbXrecord
340
1A
  0
XRECORD
  5
33B
102
{ACAD_REACTORS
330
334
102
}
330
334
100
AcDbXrecord
 90
    10781
  0
XRECORD
  5
33A
102
{ACAD_REACTORS
330
334
102
}
330
334
100
AcDbXrecord
340
19
  0
XRECORD
  5
340
102
{ACAD_REACTORS
330
334
102
}
330
334
100
AcDbXrecord
 40
0.0
  0
XRECORD
  5
343
102
{ACAD_REACTORS
330
334
102
}
330
334
100
AcDbXrecord
340
0
  0
XRECORD
  5
349
102
{ACAD_REACTORS
330
334
102
}
330
334
100
AcDbXrecord
 10
0.0
 20
0.0
 30
0.0
  0
XRECORD
  5
345
102
{ACAD_REACTORS
330
334
102
}
330
334
100
AcDbXrecord
 10
0.0
 20
0.0
 30
0.0
  0
XRECORD
  5
348
102
{ACAD_REACTORS
330
334
102
}
330
334
100
AcDbXrecord
 10
0.0
 20
0.0
 30
0.0
  0
XRECORD
  5
346
102
{ACAD_REACTORS
330
334
102
}
330
334
100
AcDbXrecord
 10
0.0
 20
0.0
 30
0.0
  0
XRECORD
  5
347
102
{ACAD_REACTORS
330
334
102
}
330
334
100
AcDbXrecord
 10
0.0
 20
0.0
 30
0.0
  0
XRECORD
  5
344
102
{ACAD_REACTORS
330
334
102
}
330
334
100
AcDbXrecord
 10
0.0
 20
0.0
 30
0.0
  0
XRECORD
  5
341
102
{ACAD_REACTORS
330
334
102
}
330
334
100
AcDbXrecord
340
0
  0
XRECORD
  5
342
102
{ACAD_REACTORS
330
334
102
}
330
334
100
AcDbXrecord
 70
     0
  0
XRECORD
  5
338
102
{ACAD_REACTORS
330
334
102
}
330
334
100
AcDbXrecord
  1

  0
XRECORD
  5
335
102
{ACAD_REACTORS
330
334
102
}
330
334
100
AcDbXrecord
 90
        1
  0
XRECORD
  5
336
102
{ACAD_REACTORS
330
334
102
}
330
334
100
AcDbXrecord
 90
       70
  0
XRECORD
  5
34C
102
{ACAD_REACTORS
330
334
102
}
330
334
100
AcDbXrecord
340
0
  0
XRECORD
  5
352
102
{ACAD_REACTORS
330
334
102
}
330
334
100
AcDbXrecord
 10
0.0
 20
0.0
 30
0.0
  0
XRECORD
  5
34E
102
{ACAD_REACTORS
330
334
102
}
330
334
100
AcDbXrecord
 10
0.0
 20
0.0
 30
0.0
  0
XRECORD
  5
351
102
{ACAD_REACTORS
330
334
102
}
330
334
100
AcDbXrecord
 10
0.0
 20
0.0
 30
0.0
  0
XRECORD
  5
34F
102
{ACAD_REACTORS
330
334
102
}
330
334
100
AcDbXrecord
 10
0.0
 20
0.0
 30
0.0
  0
XRECORD
  5
350
102
{ACAD_REACTORS
330
334
102
}
330
334
100
AcDbXrecord
 10
0.0
 20
0.0
 30
0.0
  0
XRECORD
  5
34D
102
{ACAD_REACTORS
330
334
102
}
330
334
100
AcDbXrecord
 10
0.0
 20
0.0
 30
0.0
  0
XRECORD
  5
34A
102
{ACAD_REACTORS
330
334
102
}
330
334
100
AcDbXrecord
340
0
  0
XRECORD
  5
34B
102
{ACAD_REACTORS
330
334
102
}
330
334
100
AcDbXrecord
 70
     0
  0
XRECORD
  5
33F
102
{ACAD_REACTORS
330
334
102
}
330
334
100
AcDbXrecord
  1
{FAEB1C32-E019-11D5-929B-00C0DF256EC4}
  0
DICTIONARYVAR
  5
35D
102
{ACAD_REACTORS
330
354
102
}
330
354
100
DictionaryVariables
280
     0
  1
1:1
  0
DICTIONARYVAR
  5
359
102
{ACAD_REACTORS
330
354
102
}
330
354
100
DictionaryVariables
280
     0
  1
2
  0
DICTIONARYVAR
  5
35A
102
{ACAD_REACTORS
330
354
102
}
330
354
100
DictionaryVariables
280
     0
  1
1
  0
DICTIONARYVAR
  5
35E
102
{ACAD_REACTORS
330
354
102
}
330
354
100
DictionaryVariables
280
     0
  1
1
  0
DICTIONARY
  5
361
330
45
100
AcDbDictionary
280
     1
  3
ACAD_XREC_ROUNDTRIP
360
362
  0
DICTIONARY
  5
35F
330
44
100
AcDbDictionary
280
     1
  3
ACAD_XREC_ROUNDTRIP
360
360
  0
DICTIONARY
  5
363
330
46
100
AcDbDictionary
280
     1
  3
ACAD_XREC_ROUNDTRIP
360
364
  0
XRECORD
  5
362
102
{ACAD_REACTORS
330
361
102
}
330
361
100
AcDbXrecord
102
MATERIAL
148
0.0
149
0.0
149
0.0
 93
        0
 94
      127
282
     0
 72
     1
 77
     1
171
     1
175
     1
179
     1
273
     0
  0
XRECORD
  5
360
102
{ACAD_REACTORS
330
35F
102
}
330
35F
100
AcDbXrecord
102
MATERIAL
148
0.0
149
0.0
149
0.0
 93
        0
 94
      127
282
     0
 72
     1
 77
     1
171
     1
175
     1
179
     1
273
     0
  0
XRECORD
  5
364
102
{ACAD_REACTORS
330
363
102
}
330
363
100
AcDbXrecord
102
MATERIAL
148
0.0
149
0.0
149
0.0
 93
        0
 94
      127
282
     0
 72
     1
 77
     1
171
     1
175
     1
179
     1
273
     0
  0
ENDSEC
  0
EOF
