  0
SECTION
  2
HEADER
  9
$ACADVER
  1
AC1014
  9
$ACADMAINTVER
 70
     9
  9
$DWGCODEPAGE
  3
ANSI_1251
  9
$INSBASE
 10
0.0
 20
0.0
 30
0.0
  9
$EXTMIN
 10
1.000000000000000E+20
 20
1.000000000000000E+20
 30
1.000000000000000E+20
  9
$EXTMAX
 10
-1.000000000000000E+20
 20
-1.000000000000000E+20
 30
-1.000000000000000E+20
  9
$LIMMIN
 10
0.0
 20
0.0
  9
$LIMMAX
 10
12.0
 20
9.0
  9
$ORTHOMODE
 70
     0
  9
$REGENMODE
 70
     1
  9
$FILLMODE
 70
     1
  9
$QTEXTMODE
 70
     0
  9
$MIRRTEXT
 70
     1
  9
$DRAGMODE
 70
     2
  9
$LTSCALE
 40
1.0
  9
$OSMODE
 70
    37
  9
$ATTMODE
 70
     1
  9
$TEXTSIZE
 40
0.2
  9
$TRACEWID
 40
0.05
  9
$TEXTSTYLE
  7
STANDARD
  9
$CLAYER
  8
0
  9
$CELTYPE
  6
BYLAYER
  9
$CECOLOR
 62
   256
  9
$CELTSCALE
 40
1.0
  9
$DELOBJ
 70
     1
  9
$DISPSILH
 70
     0
  9
$DIMSCALE
 40
1.0
  9
$DIMASZ
 40
0.18
  9
$DIMEXO
 40
0.0625
  9
$DIMDLI
 40
0.38
  9
$DIMRND
 40
0.0
  9
$DIMDLE
 40
0.0
  9
$DIMEXE
 40
0.18
  9
$DIMTP
 40
0.0
  9
$DIMTM
 40
0.0
  9
$DIMTXT
 40
0.18
  9
$DIMCEN
 40
0.09
  9
$DIMTSZ
 40
0.0
  9
$DIMTOL
 70
     0
  9
$DIMLIM
 70
     0
  9
$DIMTIH
 70
     1
  9
$DIMTOH
 70
     1
  9
$DIMSE1
 70
     0
  9
$DIMSE2
 70
     0
  9
$DIMTAD
 70
     0
  9
$DIMZIN
 70
     0
  9
$DIMBLK
  1

  9
$DIMASO
 70
     1
  9
$DIMSHO
 70
     1
  9
$DIMPOST
  1

  9
$DIMAPOST
  1

  9
$DIMALT
 70
     0
  9
$DIMALTD
 70
     2
  9
$DIMALTF
 40
25.4
  9
$DIMLFAC
 40
1.0
  9
$DIMTOFL
 70
     0
  9
$DIMTVP
 40
0.0
  9
$DIMTIX
 70
     0
  9
$DIMSOXD
 70
     0
  9
$DIMSAH
 70
     0
  9
$DIMBLK1
  1

  9
$DIMBLK2
  1

  9
$DIMSTYLE
  2
STANDARD
  9
$DIMCLRD
 70
     0
  9
$DIMCLRE
 70
     0
  9
$DIMCLRT
 70
     0
  9
$DIMTFAC
 40
1.0
  9
$DIMGAP
 40
0.09
  9
$DIMJUST
 70
     0
  9
$DIMSD1
 70
     0
  9
$DIMSD2
 70
     0
  9
$DIMTOLJ
 70
     1
  9
$DIMTZIN
 70
     0
  9
$DIMALTZ
 70
     0
  9
$DIMALTTZ
 70
     0
  9
$DIMFIT
 70
     3
  9
$DIMUPT
 70
     0
  9
$DIMUNIT
 70
     2
  9
$DIMDEC
 70
     4
  9
$DIMTDEC
 70
     4
  9
$DIMALTU
 70
     2
  9
$DIMALTTD
 70
     2
  9
$DIMTXSTY
  7
STANDARD
  9
$DIMAUNIT
 70
     0
  9
$LUNITS
 70
     2
  9
$LUPREC
 70
     4
  9
$SKETCHINC
 40
0.1
  9
$FILLETRAD
 40
0.5
  9
$AUNITS
 70
     0
  9
$AUPREC
 70
     0
  9
$MENU
  1
.
  9
$ELEVATION
 40
0.0
  9
$PELEVATION
 40
0.0
  9
$THICKNESS
 40
0.0
  9
$LIMCHECK
 70
     0
  9
$CHAMFERA
 40
0.0
  9
$CHAMFERB
 40
0.0
  9
$CHAMFERC
 40
0.0
  9
$CHAMFERD
 40
0.0
  9
$SKPOLY
 70
     0
  9
$TDCREATE
 40
2458163.528573657
  9
$TDUPDATE
 40
2458163.528574236
  9
$TDINDWG
 40
0.0000000116
  9
$TDUSRTIMER
 40
0.0000000116
  9
$USRTIMER
 70
     1
  9
$ANGBASE
 50
0.0
  9
$ANGDIR
 70
     0
  9
$PDMODE
 70
     0
  9
$PDSIZE
 40
0.0
  9
$PLINEWID
 40
0.0
  9
$COORDS
 70
     1
  9
$SPLFRAME
 70
     0
  9
$SPLINETYPE
 70
     6
  9
$SPLINESEGS
 70
     8
  9
$ATTDIA
 70
     0
  9
$ATTREQ
 70
     1
  9
$HANDLING
 70
     1
  9
$HANDSEED
  5
8CC
  9
$SURFTAB1
 70
     6
  9
$SURFTAB2
 70
     6
  9
$SURFTYPE
 70
     6
  9
$SURFU
 70
     6
  9
$SURFV
 70
     6
  9
$UCSNAME
  2

  9
$UCSORG
 10
0.0
 20
0.0
 30
0.0
  9
$UCSXDIR
 10
1.0
 20
0.0
 30
0.0
  9
$UCSYDIR
 10
0.0
 20
1.0
 30
0.0
  9
$PUCSNAME
  2

  9
$PUCSORG
 10
0.0
 20
0.0
 30
0.0
  9
$PUCSXDIR
 10
1.0
 20
0.0
 30
0.0
  9
$PUCSYDIR
 10
0.0
 20
1.0
 30
0.0
  9
$USERI1
 70
     0
  9
$USERI2
 70
     0
  9
$USERI3
 70
     0
  9
$USERI4
 70
     0
  9
$USERI5
 70
     0
  9
$USERR1
 40
0.0
  9
$USERR2
 40
0.0
  9
$USERR3
 40
0.0
  9
$USERR4
 40
0.0
  9
$USERR5
 40
0.0
  9
$WORLDVIEW
 70
     1
  9
$SHADEDGE
 70
     3
  9
$SHADEDIF
 70
    70
  9
$TILEMODE
 70
     1
  9
$MAXACTVP
 70
    64
  9
$PINSBASE
 10
0.0
 20
0.0
 30
0.0
  9
$PLIMCHECK
 70
     0
  9
$PEXTMIN
 10
1.000000000000000E+20
 20
1.000000000000000E+20
 30
1.000000000000000E+20
  9
$PEXTMAX
 10
-1.000000000000000E+20
 20
-1.000000000000000E+20
 30
-1.000000000000000E+20
  9
$PLIMMIN
 10
0.0
 20
0.0
  9
$PLIMMAX
 10
12.0
 20
9.0
  9
$UNITMODE
 70
     0
  9
$VISRETAIN
 70
     1
  9
$PLINEGEN
 70
     0
  9
$PSLTSCALE
 70
     1
  9
$TREEDEPTH
 70
  3020
  9
$PICKSTYLE
 70
     1
  9
$CMLSTYLE
  2
STANDARD
  9
$CMLJUST
 70
     0
  9
$CMLSCALE
 40
1.0
  9
$PROXYGRAPHICS
 70
     1
  9
$MEASUREMENT
 70
     1
  0
ENDSEC
  0
SECTION
  2
CLASSES
  0
CLASS
  1
ACDBDICTIONARYWDFLT
  2
AcDbDictionaryWithDefault
  3
ObjectDBX Classes
 90
        0
280
     0
281
     0
  0
CLASS
  1
VISUALSTYLE
  2
AcDbVisualStyle
  3
ObjectDBX Classes
 90
     4095
280
     0
281
     0
  0
CLASS
  1
MATERIAL
  2
AcDbMaterial
  3
ObjectDBX Classes
 90
     1153
280
     0
281
     0
  0
CLASS
  1
SCALE
  2
AcDbScale
  3
ObjectDBX Classes
 90
     1153
280
     0
281
     0
  0
CLASS
  1
SUN
  2
AcDbSun
  3
SCENEOE
 90
     1153
280
     0
281
     0
  0
CLASS
  1
DICTIONARYVAR
  2
AcDbDictionaryVar
  3
ObjectDBX Classes
 90
        0
280
     0
281
     0
  0
CLASS
  1
XRECORD
  2
AcDbXrecord
  3
ObjectDBX Classes
 90
        0
280
     0
281
     0
  0
CLASS
  1
LWPOLYLINE
  2
AcDbPolyline
  3
ObjectDBX Classes
 90
        0
280
     0
281
     1
  0
CLASS
  1
HATCH
  2
AcDbHatch
  3
ObjectDBX Classes
 90
        0
280
     0
281
     1
  0
CLASS
  1
ACDBPLACEHOLDER
  2
AcDbPlaceHolder
  3
ObjectDBX Classes
 90
        0
280
     0
281
     0
  0
CLASS
  1
LAYOUT
  2
AcDbLayout
  3
ObjectDBX Classes
 90
        0
280
     0
281
     0
  0
ENDSEC
  0
SECTION
  2
TABLES
  0
TABLE
  2
VPORT
  5
8
102
{ACAD_XDICTIONARY
360
8C2
102
}
330
0
100
AcDbSymbolTable
 70
     1
  0
VPORT
  5
29
330
8
100
AcDbSymbolTableRecord
100
AcDbViewportTableRecord
  2
*ACTIVE
 70
     0
 10
0.0
 20
0.0
 11
1.0
 21
1.0
 12
0.0
 22
0.0
 13
0.0
 23
0.0
 14
0.5
 24
0.5
 15
0.5
 25
0.5
 16
399.0745960638216
 26
146.4999093946343
 36
238.4598007798249
 17
121.7554723926705
 27
179.8695141118067
 37
-23.04030204819011
 40
3378.2
 41
1.3333
 42
50.0
 43
-462.0277723561638
 44
24912.57222764384
 50
0.0
 51
0.0
 71
     0
 72
   100
 73
     1
 74
     3
 75
     0
 76
     0
 77
     0
 78
     0
  0
ENDTAB
  0
TABLE
  2
LTYPE
  5
5
330
0
100
AcDbSymbolTable
 70
     1
  0
LTYPE
  5
14
330
5
100
AcDbSymbolTableRecord
100
AcDbLinetypeTableRecord
  2
BYBLOCK
 70
     0
  3

 72
    65
 73
     0
 40
0.0
  0
LTYPE
  5
15
330
5
100
AcDbSymbolTableRecord
100
AcDbLinetypeTableRecord
  2
BYLAYER
 70
     0
  3

 72
    65
 73
     0
 40
0.0
  0
LTYPE
  5
16
330
5
100
AcDbSymbolTableRecord
100
AcDbLinetypeTableRecord
  2
CONTINUOUS
 70
     0
  3
Solid line
 72
    65
 73
     0
 40
0.0
  0
ENDTAB
  0
TABLE
  2
LAYER
  5
2
330
0
100
AcDbSymbolTable
 70
     1
  0
LAYER
  5
10
330
2
100
AcDbSymbolTableRecord
100
AcDbLayerTableRecord
  2
0
 70
     0
 62
    13
  6
CONTINUOUS
  0
ENDTAB
  0
TABLE
  2
STYLE
  5
3
330
0
100
AcDbSymbolTable
 70
     3
  0
STYLE
  5
11
330
3
100
AcDbSymbolTableRecord
100
AcDbTextStyleTableRecord
  2
STANDARD
 70
     0
 40
0.0
 41
1.0
 50
0.0
 71
     0
 42
0.2
  3
txt
  4

  0
STYLE
  5
6A
330
3
100
AcDbSymbolTableRecord
100
AcDbTextStyleTableRecord
  2
ARIAL
 70
     0
 40
0.0
 41
1.0
 50
0.0
 71
     0
 42
0.2
  3
Arial
  4

1001
ACAD
1000
Arial
1071
       34
  0
STYLE
  5
6B
330
3
100
AcDbSymbolTableRecord
100
AcDbTextStyleTableRecord
  2
TAHOMA
 70
     0
 40
0.0
 41
1.0
 50
0.0
 71
     0
 42
0.2
  3
Tahoma
  4

1001
ACAD
1000
Tahoma
1071
       34
  0
ENDTAB
  0
TABLE
  2
VIEW
  5
6
330
0
100
AcDbSymbolTable
 70
     0
  0
ENDTAB
  0
TABLE
  2
UCS
  5
7
330
0
100
AcDbSymbolTable
 70
     0
  0
ENDTAB
  0
TABLE
  2
APPID
  5
9
330
0
100
AcDbSymbolTable
 70
     1
  0
APPID
  5
12
330
9
100
AcDbSymbolTableRecord
100
AcDbRegAppTableRecord
  2
ACAD
 70
     0
  0
ENDTAB
  0
TABLE
  2
DIMSTYLE
  5
A
330
0
100
AcDbSymbolTable
 70
     1
  0
DIMSTYLE
105
27
330
A
100
AcDbSymbolTableRecord
100
AcDbDimStyleTableRecord
  2
STANDARD
 70
     0
  3

  4

  5

  6

  7

 40
1.0
 41
0.18
 42
0.0625
 43
0.38
 44
0.18
 45
0.0
 46
0.0
 47
0.0
 48
0.0
140
0.18
141
0.09
142
0.0
143
25.4
144
1.0
145
0.0
146
1.0
147
0.09
 71
     0
 72
     0
 73
     1
 74
     1
 75
     0
 76
     0
 77
     0
 78
     0
170
     0
171
     2
172
     0
173
     0
174
     0
175
     0
176
     0
177
     0
178
     0
270
     2
271
     4
272
     4
273
     2
274
     2
340
11
275
     0
280
     0
281
     0
282
     0
283
     1
284
     0
285
     0
286
     0
287
     3
288
     0
  0
ENDTAB
  0
TABLE
  2
BLOCK_RECORD
  5
1
330
0
100
AcDbSymbolTable
 70
     1
  0
BLOCK_RECORD
  5
1F
330
1
100
AcDbSymbolTableRecord
100
AcDbBlockTableRecord
  2
*MODEL_SPACE
  0
BLOCK_RECORD
  5
1B
330
1
100
AcDbSymbolTableRecord
100
AcDbBlockTableRecord
  2
*PAPER_SPACE
  0
ENDTAB
  0
ENDSEC
  0
SECTION
  2
BLOCKS
  0
BLOCK
  5
20
330
1F
100
AcDbEntity
  8
0
100
AcDbBlockBegin
  2
*MODEL_SPACE
 70
     0
 10
0.0
 20
0.0
 30
0.0
  3
*MODEL_SPACE
  1

  0
ENDBLK
  5
21
330
1F
100
AcDbEntity
  8
0
100
AcDbBlockEnd
  0
BLOCK
  5
1C
330
1B
100
AcDbEntity
 67
     1
  8
0
100
AcDbBlockBegin
  2
*PAPER_SPACE
 70
     0
 10
0.0
 20
0.0
 30
0.0
  3
*PAPER_SPACE
  1

  0
ENDBLK
  5
1D
330
1B
100
AcDbEntity
 67
     1
  8
0
100
AcDbBlockEnd
  0
ENDSEC
  0
SECTION
  2
ENTITIES
  0
ARC
  5
6C
330
1F
100
AcDbEntity
  8
0
100
AcDbCircle
 10
-204.2300439229867
 20
32.80714076735574
 30
-5.000000000000099
 40
10.00000000000002
210
1.561818176658159E-15
220
-8.887788342578839E-15
230
-1.0
100
AcDbArc
 50
260.2724214485966
 51
80.27242144859869
  0
ARC
  5
6D
330
1F
100
AcDbEntity
  8
0
100
AcDbCircle
 10
-109.9999999999992
 20
641.6666666666671
 30
-4.999999999999954
 40
651.0269665007064
210
-3.777340117843482E-17
220
2.747887492261364E-16
230
-1.0
100
AcDbArc
 50
260.2724214485985
 51
279.7275785514016
  0
ARC
  5
6E
330
1F
100
AcDbEntity
  8
0
100
AcDbCircle
 10
-198.3163103941066
 20
67.30391968582019
 30
-4.999999999999706
 40
10.00000000000003
210
-3.012315858952135E-15
220
1.779466019847728E-14
230
-1.0
100
AcDbArc
 50
260.2724214485972
 51
80.27242144860011
  0
LINE
  5
6F
330
1F
100
AcDbEntity
  8
0
100
AcDbLine
 10
-0.0000000000010829
 20
0.0
 30
4.999999999999946
 11
59.99999999999888
 21
350.0000000000006
 31
5.000000000000487
  0
LINE
  5
70
330
1F
100
AcDbEntity
  8
0
100
AcDbLine
 10
203.9484375644685
 20
93.63411420726024
 30
5.000000000000036
 11
194.0922150163356
 21
91.94447605615197
 31
5.000000000000397
  0
LINE
  5
71
330
1F
100
AcDbEntity
  8
0
100
AcDbLine
 10
215.7759046222282
 20
24.6405563703315
 30
5.000000000000487
 11
205.9196820740955
 21
22.95091821922315
 31
5.000000000000217
  0
ARC
  5
72
330
1F
100
AcDbEntity
  8
0
100
AcDbCircle
 10
-192.4025768652279
 20
101.8006986042846
 30
-5.00000000000091
 40
10.00000000000001
210
1.561818176657287E-15
220
-8.887788342579076E-15
230
-1.0
100
AcDbArc
 50
260.2724214486025
 51
80.27242144859528
  0
LINE
  5
73
330
1F
100
AcDbEntity
  8
0
100
AcDbLine
 10
209.8621710933484
 20
59.13733528879582
 30
4.999999999999946
 11
200.0059485452152
 21
57.44769713768747
 31
5.000000000000126
  0
LINE
  5
74
330
1F
100
AcDbEntity
  8
0
100
AcDbLine
 10
196.6266722429984
 20
77.16014223395266
 30
5.000000000000306
 11
206.4828947911308
 21
78.84978038506136
 31
5.000000000000217
  0
LINE
  5
75
330
1F
100
AcDbEntity
  8
0
100
AcDbLine
 10
160.0000000000033
 20
350.0000000000005
 30
4.999999999999946
 11
59.99999999999888
 21
350.0000000000006
 31
5.000000000000487
  0
LINE
  5
76
330
1F
100
AcDbEntity
  8
0
100
AcDbLine
 10
202.5404057718783
 20
42.66336331548842
 30
5.000000000000306
 11
212.3966283200112
 21
44.35300146659687
 31
5.000000000000126
  0
LINE
  5
77
330
1F
100
AcDbEntity
  8
0
100
AcDbLine
 10
167.0580045986
 20
249.6440368262747
 30
5.000000000000036
 11
176.9142271467327
 21
251.3336749773829
 31
5.000000000000036
  0
LINE
  5
78
330
1F
100
AcDbEntity
  8
0
100
AcDbLine
 10
192.1209705067092
 20
162.6276720441891
 30
5.000000000000217
 11
182.2647479585769
 21
160.9380338930806
 31
5.000000000000306
  0
ARC
  5
79
330
1F
100
AcDbEntity
  8
0
100
AcDbCircle
 10
-180.5751098074688
 20
170.7942564412131
 30
-5.000000000003759
 40
10.00000000000002
210
4.611240867063686E-15
220
-2.667608736995019E-14
230
-1.0
100
AcDbArc
 50
260.2724214485999
 51
80.27242144859096
  0
LINE
  5
7A
330
1F
100
AcDbEntity
  8
0
100
AcDbLine
 10
172.9717381274796
 20
215.1472579078103
 30
5.000000000000217
 11
182.8279606756127
 21
216.8368960589186
 31
5.000000000000306
  0
LINE
  5
7B
330
1F
100
AcDbEntity
  8
0
100
AcDbLine
 10
180.2935034489498
 20
231.621229881118
 30
5.000000000000306
 11
170.437280900817
 21
229.9315917300092
 31
5.000000000000126
  0
LINE
  5
7C
330
1F
100
AcDbEntity
  8
0
100
AcDbLine
 10
184.7992051852395
 20
146.1537000708817
 30
5.000000000000126
 11
194.6554277333715
 21
147.8433382219901
 31
5.000000000000306
  0
LINE
  5
7D
330
1F
100
AcDbEntity
  8
0
100
AcDbLine
 10
178.885471656359
 20
180.6504789893457
 30
5.000000000000126
 11
188.7416942044925
 21
182.3401171404543
 31
5.000000000000397
  0
ARC
  5
7E
330
1F
100
AcDbEntity
  8
0
100
AcDbCircle
 10
-174.6613762785881
 20
205.2910353596776
 30
-5.000000000000028
 40
10.00000000000002
210
3.710683145468690E-17
220
6.361171106517730E-18
230
-1.0
100
AcDbArc
 50
260.2724214485984
 51
80.27242144859822
  0
ARC
  5
7F
330
1F
100
AcDbEntity
  8
0
100
AcDbCircle
 10
-186.4888433363478
 20
136.2974775227489
 30
-5.000000000000956
 40
10.00000000000002
210
1.561818176657543E-15
220
-8.887788342578980E-15
230
-1.0
100
AcDbArc
 50
260.2724214486008
 51
80.2724214485993
  0
LINE
  5
80
330
1F
100
AcDbEntity
  8
0
100
AcDbLine
 10
198.034704035589
 20
128.1308931257249
 30
5.000000000000036
 11
188.1784814874558
 21
126.4412549746162
 31
5.000000000000126
  0
ARC
  5
81
330
1F
100
AcDbEntity
  8
0
100
AcDbCircle
 10
-168.7476427497089
 20
239.7878142781421
 30
-4.999999999998334
 40
10.00000000000001
210
-1.487604513748100E-15
220
8.900510684791901E-15
230
-1.0
100
AcDbArc
 50
260.2724214486009
 51
80.27242144859564
  0
LINE
  5
82
330
1F
100
AcDbEntity
  8
0
100
AcDbLine
 10
190.7129387141189
 20
111.6569211524172
 30
5.000000000000126
 11
200.5691612622517
 21
113.346559303526
 31
5.000000000000217
  0
LINE
  5
83
330
1F
100
AcDbEntity
  8
0
100
AcDbLine
 10
186.2072369778302
 20
197.1244509626533
 30
5.000000000000306
 11
176.3510144296966
 21
195.4348128115447
 31
5.000000000000036
  0
LINE
  5
84
330
1F
100
AcDbEntity
  8
0
100
AcDbLine
 10
174.3797699200702
 20
266.1180087995821
 30
5.000000000000217
 11
164.5235473719376
 21
264.4283706484737
 31
4.999999999999946
  0
LINE
  5
85
330
1F
100
AcDbEntity
  8
0
100
AcDbLine
 10
161.1442710697206
 20
284.1408157447389
 30
5.000000000000217
 11
171.0004936178531
 21
285.8304538958473
 31
5.000000000000126
  0
ARC
  5
86
330
1F
100
AcDbEntity
  8
0
100
AcDbCircle
 10
-162.8339092208286
 20
274.2845931966064
 30
-4.999999999995736
 40
10.00000000000002
210
-3.012315858952605E-15
220
1.779466019847712E-14
230
-1.0
100
AcDbArc
 50
260.2724214485957
 51
80.27242144860098
  0
LINE
  5
87
330
1F
100
AcDbEntity
  8
0
100
AcDbLine
 10
168.4660363911906
 20
300.6147877180464
 30
5.000000000000126
 11
158.6098138430577
 21
298.9251495669383
 31
5.000000000000126
  0
ARC
  5
88
330
1F
100
AcDbEntity
  8
0
100
AcDbCircle
 10
-156.9201756919497
 20
308.7813721150708
 30
-5.000000000000118
 40
10.00000000000003
210
3.710683145470018E-17
220
6.361171106518541E-18
230
-1.0
100
AcDbArc
 50
260.2724214486007
 51
80.27242144859675
  0
LINE
  5
89
330
1F
100
AcDbEntity
  8
0
100
AcDbLine
 10
155.3053503309298
 20
318.1607729345459
 30
0.000000000000361
 11
160.2334620456203
 21
319.0055920856357
 31
0.0000000000002707
  0
LINE
  5
8A
330
1F
100
AcDbEntity
  8
0
100
AcDbLine
 10
161.2190838598095
 20
283.6639940160817
 30
0.0000000000002707
 11
166.1471955744996
 21
284.5088131671715
 31
0.0000000000001805
  0
LINE
  5
8B
330
1F
100
AcDbEntity
  8
0
100
AcDbLine
 10
173.0465509175689
 20
214.6704361791529
 30
0.0000000000002707
 11
177.9746624119476
 21
215.5152552924752
 31
-0.0000002235255231
  0
LINE
  5
8C
330
1F
100
AcDbEntity
  8
0
100
AcDbLine
 10
155.230537540841
 20
318.6375946632033
 30
5.000000000000306
 11
165.0867600889735
 21
320.3272328143115
 31
5.000000000000126
  0
ARC
  5
8D
330
1F
100
AcDbEntity
  8
0
100
AcDbCircle
 10
-162.9087220109178
 20
273.8077714679492
 30
-0.0000000000131195
 40
10.00000000000002
210
9.157512631406430E-15
220
-5.336331230036517E-14
230
-1.0
100
AcDbArc
 50
260.2724214485989
 51
80.2724214485995
  0
LINE
  5
8E
330
1F
100
AcDbEntity
  8
0
100
AcDbLine
 10
4.227958527057805
 20
4.397300519405107
 30
0.0000000000004512
 11
64.20532070649675
 21
345.0718887259338
 31
0.0000000000002707
  0
ARC
  5
8F
330
1F
100
AcDbEntity
  8
0
100
AcDbCircle
 10
-156.9949884820379
 20
308.3045503864137
 30
-0.0000000000026813
 40
10.00000000000002
210
1.533955816998897E-15
220
-8.892564747091670E-15
230
-1.0
100
AcDbArc
 50
260.2724214485974
 51
80.27242144859986
  0
LINE
  5
90
330
1F
100
AcDbEntity
  8
0
100
AcDbLine
 10
167.1328173886891
 20
249.1672150976173
 30
0.0000000000002707
 11
172.0609291033796
 21
250.0120342487074
 31
0.0000000000004512
  0
ARC
  5
91
330
1F
100
AcDbEntity
  8
0
100
AcDbCircle
 10
-198.3911231841957
 20
66.82709795716322
 30
-0.0000000000007835
 40
10.00000000000002
210
4.583378595796592E-15
220
-2.668086375930862E-14
230
-1.0
100
AcDbArc
 50
260.2724214485997
 51
80.27242144859645
  0
LINE
  5
92
330
1F
100
AcDbEntity
  8
0
100
AcDbLine
 10
155.3053503309298
 20
318.1607729345459
 30
0.000000000000361
 11
155.230537540841
 21
318.6375946632033
 31
5.000000000000306
  0
ARC
  5
93
330
1F
100
AcDbEntity
  8
0
100
AcDbCircle
 10
-168.8224555397969
 20
239.3109925494851
 30
-0.0000000000075725
 40
10.00000000000002
210
6.108090029395033E-15
220
-3.557501325784024E-14
230
-1.0
100
AcDbArc
 50
260.2724214485944
 51
80.27242144860175
  0
ARC
  5
94
330
1F
100
AcDbEntity
  8
0
100
AcDbCircle
 10
-186.5636561264369
 20
135.8206557940919
 30
-0.0000000000010997
 40
10.00000000000003
210
1.545527517143025E-15
220
-8.890581027066922E-15
230
-1.0
100
AcDbArc
 50
260.2724214486005
 51
80.27242144859554
  0
ARC
  5
95
330
1F
100
AcDbEntity
  8
0
100
AcDbCircle
 10
-180.6499225975568
 20
170.3174347125561
 30
-0.0000000000015082
 40
10.00000000000002
210
1.533956258959834E-15
220
-8.892564671326964E-15
230
-1.0
100
AcDbArc
 50
260.2724214485984
 51
80.27242144860057
  0
LINE
  5
96
330
1F
100
AcDbEntity
  8
0
100
AcDbLine
 10
184.874017975328
 20
145.6768783422244
 30
0.000000000000361
 11
189.8021296900195
 21
146.5216974933143
 31
0.000000000000361
  0
LINE
  5
97
330
1F
100
AcDbEntity
  8
0
100
AcDbLine
 10
190.7877515042077
 20
111.1800994237601
 30
0.0000000000004512
 11
195.715863218899
 21
112.0249185748499
 31
0.000000000000361
  0
LINE
  5
98
330
1F
100
AcDbEntity
  8
0
100
AcDbLine
 10
178.9602844464488
 20
180.1736572606886
 30
0.0000000000002707
 11
183.8883961611394
 21
181.0184764117784
 31
0.0000000000002707
  0
LINE
  5
99
330
1F
100
AcDbEntity
  8
0
100
AcDbLine
 10
196.7014850330869
 20
76.68332050529567
 30
0.0000000000002707
 11
201.6295967477785
 21
77.52813965638556
 31
0.0000000000002707
  0
ARC
  5
9A
330
1F
100
AcDbEntity
  8
0
100
AcDbCircle
 10
-192.4773896553158
 20
101.3238768756276
 30
-0.000000000001394
 40
10.00000000000002
210
3.058667162201661E-15
220
-1.778671426077646E-14
230
-1.0
100
AcDbArc
 50
260.2724214485989
 51
80.27242144860001
  0
ARC
  5
9B
330
1F
100
AcDbEntity
  8
0
100
AcDbCircle
 10
-174.7361890686773
 20
204.8142136310207
 30
-0.000000000001824
 40
10.00000000000002
210
1.533955728606778E-15
220
-8.892564762244413E-15
230
-1.0
100
AcDbArc
 50
260.2724214485966
 51
80.27242144859822
  0
LINE
  5
9C
330
1F
100
AcDbEntity
  8
0
100
AcDbLine
 10
158.725678775453
 20
282.8908408440045
 30
0.0000000000004512
 11
158.6508659853644
 21
283.3676625726617
 31
4.999999999999946
  0
LINE
  5
9D
330
1F
100
AcDbEntity
  8
0
100
AcDbLine
 10
161.2190838598095
 20
283.6639940160817
 30
0.0000000000002707
 11
161.1442710697206
 21
284.1408157447389
 31
5.000000000000217
  0
LINE
  5
9E
330
1F
100
AcDbEntity
  8
0
100
AcDbLine
 10
148.8308320869696
 20
314.0791975926816
 30
0.0000000000002707
 11
148.7560192968811
 21
314.5560193213389
 31
5.000000000000126
  0
LINE
  5
9F
330
1F
100
AcDbEntity
  8
0
100
AcDbLine
 10
147.1387659339058
 20
306.6149122353049
 30
0.000000000000361
 11
147.0639531438169
 21
307.0917339639622
 31
5.000000000000036
  0
LINE
  5
A0
330
1F
100
AcDbEntity
  8
0
100
AcDbLine
 10
154.7445656158493
 20
279.5824186742172
 30
0.000000000000361
 11
154.6697528257603
 21
280.0592404028743
 31
5.000000000000126
  0
LINE
  5
A1
330
1F
100
AcDbEntity
  8
0
100
AcDbLine
 10
157.13407480465
 20
265.6436150728804
 30
0.0000000000002707
 11
157.059262014561
 21
266.1204368015376
 31
5.000000000000036
  0
LINE
  5
A2
330
1F
100
AcDbEntity
  8
0
100
AcDbLine
 10
159.4418973522071
 20
242.7758342614879
 30
0.0000000000004512
 11
159.3670845621189
 21
243.2526559901449
 31
5.000000000000036
  0
LINE
  5
A3
330
1F
100
AcDbEntity
  8
0
100
AcDbLine
 10
152.8119452465735
 20
317.3876197624687
 30
0.0000000000002707
 11
152.7371324564851
 21
317.8644414911259
 31
5.000000000000036
  0
LINE
  5
A4
330
1F
100
AcDbEntity
  8
0
100
AcDbLine
 10
150.6036076459083
 20
315.9954704228952
 30
0.0000000000004512
 11
150.52879485582
 21
316.4722921515526
 31
5.000000000000036
  0
LINE
  5
A5
330
1F
100
AcDbEntity
  8
0
100
AcDbLine
 10
147.0372980403055
 20
309.2234633674002
 30
0.000000000000361
 11
146.9624852502174
 21
309.7002850960574
 31
5.000000000000126
  0
LINE
  5
A6
330
1F
100
AcDbEntity
  8
0
100
AcDbLine
 10
202.615218561967
 20
42.18654158683126
 30
0.000000000000361
 11
207.5433302766582
 21
43.03136073792142
 31
0.0000000000002707
  0
LINE
  5
A7
330
1F
100
AcDbEntity
  8
0
100
AcDbLine
 10
162.431074703668
 20
247.0019125859666
 30
0.0000000000002707
 11
162.3562619135792
 21
247.4787343146238
 31
5.000000000000306
  0
LINE
  5
A8
330
1F
100
AcDbEntity
  8
0
100
AcDbLine
 10
160.6582991447288
 20
245.0856397557529
 30
0.0000000000004512
 11
160.5834863546402
 21
245.5624614844101
 31
5.000000000000036
  0
LINE
  5
A9
330
1F
100
AcDbEntity
  8
0
100
AcDbLine
 10
151.2203412757695
 20
300.1403939913446
 30
0.0000000000002707
 11
151.1455284856816
 21
300.6172157200018
 31
5.000000000000217
  0
LINE
  5
AA
330
1F
100
AcDbEntity
  8
0
100
AcDbLine
 10
161.1315355033158
 20
232.919611713355
 30
0.000000000000361
 11
161.056722713227
 21
233.3964334420123
 31
5.000000000000036
  0
LINE
  5
AB
330
1F
100
AcDbEntity
  8
0
100
AcDbLine
 10
168.3448082325476
 20
212.5051336675023
 30
0.000000000000361
 11
168.2699954424588
 21
212.9819553961594
 31
5.000000000000306
  0
LINE
  5
AC
330
1F
100
AcDbEntity
  8
0
100
AcDbLine
 10
164.8799665205439
 20
203.1245754799117
 30
0.000000000000361
 11
164.8051537304559
 21
203.6013972085693
 31
5.000000000000126
  0
LINE
  5
AD
330
1F
100
AcDbEntity
  8
0
100
AcDbLine
 10
163.0478083335293
 20
231.1468361544159
 30
0.0000000000004512
 11
162.9729955434408
 21
231.6236578830732
 31
5.000000000000217
  0
LINE
  5
AE
330
1F
100
AcDbEntity
  8
0
100
AcDbLine
 10
165.6531196926217
 20
200.6311703955557
 30
0.000000000000361
 11
165.578306902533
 21
201.1079921242129
 31
5.000000000000126
  0
LINE
  5
AF
330
1F
100
AcDbEntity
  8
0
100
AcDbLine
 10
167.0452690321954
 20
198.4228327948905
 30
0.0000000000002707
 11
166.9704562421062
 21
198.8996545235478
 31
5.000000000000306
  0
ARC
  5
B0
330
1F
100
AcDbEntity
  8
0
100
AcDbCircle
 10
-204.304856713075
 20
32.33031903869899
 30
0.0000000000001217
 40
10.00000000000001
210
7.632800844243222E-15
220
-4.446916286244192E-14
230
-1.0
100
AcDbArc
 50
260.2724214485971
 51
80.27242144860062
  0
LINE
  5
B1
330
1F
100
AcDbEntity
  8
0
100
AcDbLine
 10
155.2178019744363
 20
267.4163906318194
 30
0.000000000000361
 11
155.1429891843472
 21
267.8932123604766
 31
5.000000000000126
  0
LINE
  5
B2
330
1F
100
AcDbEntity
  8
0
100
AcDbLine
 10
147.6144302944481
 20
311.7693920984165
 30
0.0000000000002707
 11
147.53961750436
 21
312.2462138270738
 31
5.000000000000126
  0
LINE
  5
B3
330
1F
100
AcDbEntity
  8
0
100
AcDbLine
 10
156.5173411747882
 20
281.4986915044307
 30
0.0000000000004512
 11
156.4425283846996
 21
281.975513233088
 31
5.000000000000036
  0
LINE
  5
B4
330
1F
100
AcDbEntity
  8
0
100
AcDbLine
 10
149.3040684455567
 20
301.9131695502837
 30
0.0000000000002707
 11
149.2292556554679
 21
302.3899912789408
 31
5.000000000000217
  0
LINE
  5
B5
330
1F
100
AcDbEntity
  8
0
100
AcDbLine
 10
173.0465509175689
 20
214.6704361791529
 30
0.0000000000002707
 11
172.9717381274796
 21
215.1472579078103
 31
5.000000000000217
  0
LINE
  5
B6
330
1F
100
AcDbEntity
  8
0
100
AcDbLine
 10
153.5301467700351
 20
298.9239921988233
 30
0.000000000000361
 11
153.4553339799464
 21
299.4008139274807
 31
5.000000000000126
  0
LINE
  5
B7
330
1F
100
AcDbEntity
  8
0
100
AcDbLine
 10
167.1328173886891
 20
249.1672150976173
 30
0.0000000000002707
 11
167.0580045986
 21
249.6440368262747
 31
5.000000000000036
  0
LINE
  5
B8
330
1F
100
AcDbEntity
  8
0
100
AcDbLine
 10
166.5720326736086
 20
210.5888608372885
 30
0.000000000000361
 11
166.4972198835196
 21
211.0656825659459
 31
5.000000000000036
  0
LINE
  5
B9
330
1F
100
AcDbEntity
  8
0
100
AcDbLine
 10
164.6394123043325
 20
248.3940619255398
 30
0.000000000000361
 11
164.5645995142446
 21
248.8708836541972
 31
5.000000000000126
  0
LINE
  5
BA
330
1F
100
AcDbEntity
  8
0
100
AcDbLine
 10
156.0760755010516
 20
298.3468599446808
 30
0.0000000000002707
 11
156.0012627109626
 21
298.8236816733381
 31
5.000000000000036
  0
LINE
  5
BB
330
1F
100
AcDbEntity
  8
0
100
AcDbLine
 10
196.7014850330869
 20
76.68332050529567
 30
0.0000000000002707
 11
196.6266722429984
 21
77.16014223395266
 31
5.000000000000306
  0
LINE
  5
BC
330
1F
100
AcDbEntity
  8
0
100
AcDbLine
 10
194.1670278064243
 20
91.46765432749444
 30
0.000000000000361
 11
194.0922150163356
 21
91.94447605615197
 31
5.000000000000397
  0
LINE
  5
BD
330
1F
100
AcDbEntity
  8
0
100
AcDbLine
 10
183.3943202792612
 20
97.14083364016253
 30
0.0000000000002707
 11
183.3195074891721
 21
97.61765536881995
 31
5.000000000000217
  0
LINE
  5
BE
330
1F
100
AcDbEntity
  8
0
100
AcDbLine
 10
158.9662329916646
 20
237.6213543983762
 30
0.0000000000002707
 11
158.8914202015761
 21
238.0981761270337
 31
5.000000000000306
  0
LINE
  5
BF
330
1F
100
AcDbEntity
  8
0
100
AcDbLine
 10
153.5281638233278
 20
277.2726131799522
 30
0.0000000000004512
 11
153.4533510332389
 21
277.7494349086094
 31
4.999999999999946
  0
LINE
  5
C0
330
1F
100
AcDbEntity
  8
0
100
AcDbLine
 10
159.7393861637422
 20
235.1279493140201
 30
0.0000000000004512
 11
159.6645733736531
 21
235.6047710426773
 31
5.000000000000126
  0
LINE
  5
C1
330
1F
100
AcDbEntity
  8
0
100
AcDbLine
 10
153.8256526348624
 20
269.6247282324845
 30
0.000000000000361
 11
153.7508398447739
 21
270.1015499611415
 31
5.000000000000036
  0
LINE
  5
C2
330
1F
100
AcDbEntity
  8
0
100
AcDbLine
 10
165.3576138277943
 20
229.9304343618947
 30
0.000000000000361
 11
165.2828010377056
 21
230.4072560905517
 31
5.000000000000126
  0
LINE
  5
C3
330
1F
100
AcDbEntity
  8
0
100
AcDbLine
 10
182.6211671071838
 20
99.63423872451882
 30
0.0000000000005414
 11
182.5463543170949
 21
100.1110604531762
 31
5.000000000000126
  0
LINE
  5
C4
330
1F
100
AcDbEntity
  8
0
100
AcDbLine
 10
158.6846266331466
 20
298.4483278382808
 30
0.0000000000002707
 11
158.6098138430577
 21
298.9251495669383
 31
5.000000000000126
  0
LINE
  5
C5
330
1F
100
AcDbEntity
  8
0
100
AcDbLine
 10
164.7784986269444
 20
205.7331266120072
 30
0.0000000000002707
 11
164.7036858368558
 21
206.2099483406643
 31
5.000000000000306
  0
LINE
  5
C6
330
1F
100
AcDbEntity
  8
0
100
AcDbLine
 10
183.096831467726
 20
104.7887185876303
 30
0.000000000000361
 11
183.0220186776373
 21
105.2655403162875
 31
5.000000000000306
  0
LINE
  5
C7
330
1F
100
AcDbEntity
  8
0
100
AcDbLine
 10
182.3395607486653
 20
160.4612121644233
 30
0.000000000000361
 11
182.2647479585769
 21
160.9380338930806
 31
5.000000000000306
  0
LINE
  5
C8
330
1F
100
AcDbEntity
  8
0
100
AcDbLine
 10
173.8172760876905
 20
194.8565231892877
 30
0.0000000000004512
 11
173.7424632976018
 21
195.3333449179449
 31
5.000000000000036
  0
LINE
  5
C9
330
1F
100
AcDbEntity
  8
0
100
AcDbLine
 10
172.4857662024879
 20
176.0920819188239
 30
0.0000000000002707
 11
172.4109534123994
 21
176.5689036474811
 31
5.000000000000487
  0
LINE
  5
CA
330
1F
100
AcDbEntity
  8
0
100
AcDbLine
 10
202.615218561967
 20
42.18654158683126
 30
0.000000000000361
 11
202.5404057718783
 21
42.66336331548842
 31
5.000000000000306
  0
LINE
  5
CB
330
1F
100
AcDbEntity
  8
0
100
AcDbLine
 10
185.6447431454498
 20
125.862965352359
 30
0.0000000000004512
 11
185.5699303553614
 21
126.3397870810161
 31
5.000000000000306
  0
LINE
  5
CC
330
1F
100
AcDbEntity
  8
0
100
AcDbLine
 10
190.7877515042077
 20
111.1800994237601
 30
0.0000000000004512
 11
190.7129387141189
 21
111.6569211524172
 31
5.000000000000126
  0
LINE
  5
CD
330
1F
100
AcDbEntity
  8
0
100
AcDbLine
 10
164.5983601620262
 20
263.9515489198164
 30
0.0000000000005414
 11
164.5235473719376
 21
264.4283706484737
 31
4.999999999999946
  0
LINE
  5
CE
330
1F
100
AcDbEntity
  8
0
100
AcDbLine
 10
177.183097938847
 20
139.2854975060947
 30
0.000000000000361
 11
177.1082851487572
 21
139.7623192347518
 31
5.000000000000306
  0
LINE
  5
CF
330
1F
100
AcDbEntity
  8
0
100
AcDbLine
 10
180.7890089201692
 20
127.6564993990228
 30
0.0000000000002707
 11
180.7141961300796
 21
128.1333211276803
 31
5.000000000000397
  0
LINE
  5
D0
330
1F
100
AcDbEntity
  8
0
100
AcDbLine
 10
184.3132332602475
 20
107.0985240818954
 30
0.000000000000361
 11
184.238420470159
 21
107.5753458105526
 31
5.000000000000306
  0
LINE
  5
D1
330
1F
100
AcDbEntity
  8
0
100
AcDbLine
 10
183.0988144144333
 20
126.4400976065017
 30
0.000000000000361
 11
183.0240016243451
 21
126.9169193351587
 31
5.000000000000487
  0
LINE
  5
D2
330
1F
100
AcDbEntity
  8
0
100
AcDbLine
 10
176.4668793620926
 20
179.4005040886113
 30
0.000000000000361
 11
176.3920665720034
 21
179.8773258172685
 31
5.000000000000217
  0
LINE
  5
D3
330
1F
100
AcDbEntity
  8
0
100
AcDbLine
 10
184.874017975328
 20
145.6768783422244
 30
0.000000000000361
 11
184.7992051852395
 21
146.1537000708817
 31
5.000000000000126
  0
LINE
  5
D4
330
1F
100
AcDbEntity
  8
0
100
AcDbLine
 10
158.8647650980646
 20
240.2299055304714
 30
0.0000000000004512
 11
158.7899523079762
 21
240.7067272591289
 31
4.999999999999946
  0
LINE
  5
D5
330
1F
100
AcDbEntity
  8
0
100
AcDbLine
 10
171.2693644099662
 20
173.782276424559
 30
0.000000000000361
 11
171.1945516198781
 21
174.259098153216
 31
5.000000000000397
  0
LINE
  5
D6
330
1F
100
AcDbEntity
  8
0
100
AcDbLine
 10
184.7864696188344
 20
94.9324960394975
 30
0.0000000000001805
 11
184.7116568287459
 21
95.40931776815493
 31
5.000000000000306
  0
LINE
  5
D7
330
1F
100
AcDbEntity
  8
0
100
AcDbLine
 10
174.8752753912889
 20
162.1532783174873
 30
0.000000000000361
 11
174.8004626011997
 21
162.6301000461447
 31
4.999999999999946
  0
LINE
  5
D8
330
1F
100
AcDbEntity
  8
0
100
AcDbLine
 10
191.5584766743296
 20
91.36618643389446
 30
0.0000000000002707
 11
191.4836638842405
 21
91.84300816255188
 31
5.000000000000036
  0
LINE
  5
D9
330
1F
100
AcDbEntity
  8
0
100
AcDbLine
 10
152.9510315691853
 20
274.7266844489359
 30
0.0000000000002707
 11
152.8762187790965
 21
275.2035061775931
 31
4.999999999999946
  0
LINE
  5
DA
330
1F
100
AcDbEntity
  8
0
100
AcDbLine
 10
147.9119191059831
 20
304.1215071509488
 30
0.0000000000000902
 11
147.8371063158939
 21
304.5983288796062
 31
5.000000000000217
  0
LINE
  5
DB
330
1F
100
AcDbEntity
  8
0
100
AcDbLine
 10
170.5531458332123
 20
213.8972830070756
 30
0.0000000000002707
 11
170.4783330431236
 21
214.3741047357327
 31
5.000000000000397
  0
LINE
  5
DC
330
1F
100
AcDbEntity
  8
0
100
AcDbLine
 10
159.4438802989146
 20
264.427213280359
 30
0.0000000000002707
 11
159.3690675088261
 21
264.9040350090162
 31
5.000000000000126
  0
LINE
  5
DD
330
1F
100
AcDbEntity
  8
0
100
AcDbLine
 10
161.9898090299309
 20
263.8500810262166
 30
0.0000000000002707
 11
161.9149962398424
 21
264.3269027548737
 31
5.000000000000217
  0
LINE
  5
DE
330
1F
100
AcDbEntity
  8
0
100
AcDbLine
 10
188.2532942775451
 20
125.9644332459589
 30
0.0000000000002707
 11
188.1784814874558
 21
126.4412549746162
 31
5.000000000000126
  0
LINE
  5
DF
330
1F
100
AcDbEntity
  8
0
100
AcDbLine
 10
168.9615418624092
 20
196.6500572359517
 30
0.000000000000361
 11
168.8867290723199
 21
197.1268789646088
 31
5.000000000000036
  0
LINE
  5
E0
330
1F
100
AcDbEntity
  8
0
100
AcDbLine
 10
178.3994997313684
 20
141.5953030003598
 30
0.000000000000361
 11
178.324686941279
 21
142.0721247290168
 31
5.000000000000126
  0
LINE
  5
E1
330
1F
100
AcDbEntity
  8
0
100
AcDbLine
 10
182.5196992135834
 20
102.242789856614
 30
0.0000000000001805
 11
182.444886423495
 21
102.7196115852712
 31
5.000000000000217
  0
LINE
  5
E2
330
1F
100
AcDbEntity
  8
0
100
AcDbLine
 10
188.2943464198517
 20
110.4069462516823
 30
0.000000000000361
 11
188.2195336297629
 21
110.8837679803398
 31
5.000000000000126
  0
LINE
  5
E3
330
1F
100
AcDbEntity
  8
0
100
AcDbLine
 10
153.0524994627849
 20
272.1181333168407
 30
0.000000000000361
 11
152.9776866726967
 21
272.5949550454978
 31
5.000000000000036
  0
LINE
  5
E4
330
1F
100
AcDbEntity
  8
0
100
AcDbLine
 10
170.5120936909061
 20
229.4547700013521
 30
0.0000000000004512
 11
170.437280900817
 21
229.9315917300092
 31
5.000000000000126
  0
LINE
  5
E5
330
1F
100
AcDbEntity
  8
0
100
AcDbLine
 10
186.0860088191868
 20
109.0147969121088
 30
0.0000000000004512
 11
186.0111960290976
 21
109.4916186407663
 31
5.000000000000036
  0
LINE
  5
E6
330
1F
100
AcDbEntity
  8
0
100
AcDbLine
 10
167.9035425588105
 20
229.3533021077522
 30
0.0000000000004512
 11
167.8287297687217
 21
229.8301238364093
 31
5.000000000000036
  0
LINE
  5
E7
330
1F
100
AcDbEntity
  8
0
100
AcDbLine
 10
171.2713473566738
 20
195.4336554434302
 30
0.0000000000004512
 11
171.1965345665854
 21
195.9104771720876
 31
5.000000000000036
  0
LINE
  5
E8
330
1F
100
AcDbEntity
  8
0
100
AcDbLine
 10
177.4805867503812
 20
131.6376125586268
 30
0.0000000000002707
 11
177.405773960292
 21
132.1144342872844
 31
5.000000000000126
  0
LINE
  5
E9
330
1F
100
AcDbEntity
  8
0
100
AcDbLine
 10
178.872736089955
 20
129.4292749579619
 30
0.000000000000361
 11
178.7979232998653
 21
129.9060966866193
 31
5.000000000000126
  0
LINE
  5
EA
330
1F
100
AcDbEntity
  8
0
100
AcDbLine
 10
176.4258272197862
 20
194.9579910828876
 30
0.000000000000361
 11
176.3510144296966
 21
195.4348128115447
 31
5.000000000000036
  0
LINE
  5
EB
330
1F
100
AcDbEntity
  8
0
100
AcDbLine
 10
177.1850808855541
 20
160.9368765249658
 30
0.000000000000361
 11
177.1102680954645
 21
161.4136982536229
 31
5.000000000000217
  0
LINE
  5
EC
330
1F
100
AcDbEntity
  8
0
100
AcDbLine
 10
165.3556308810873
 20
208.2790553430235
 30
0.0000000000002707
 11
165.2808180909981
 21
208.7558770716807
 31
4.999999999999946
  0
LINE
  5
ED
330
1F
100
AcDbEntity
  8
0
100
AcDbLine
 10
174.2585417614278
 20
178.0083547490376
 30
0.0000000000001805
 11
174.1837289713381
 21
178.485176477695
 31
5.000000000000306
  0
LINE
  5
EE
330
1F
100
AcDbEntity
  8
0
100
AcDbLine
 10
179.7310096165703
 20
160.3597442708234
 30
0.0000000000001805
 11
179.6561968264809
 21
160.8365659994803
 31
5.000000000000036
  0
LINE
  5
EF
330
1F
100
AcDbEntity
  8
0
100
AcDbLine
 10
194.9262814721925
 20
57.44653976957265
 30
0.000000000000361
 11
194.8514686821042
 21
57.92336149823008
 31
5.000000000000126
  0
LINE
  5
F0
330
1F
100
AcDbEntity
  8
0
100
AcDbLine
 10
197.4722102032091
 20
56.86940751543004
 30
0.0000000000002707
 11
197.3973974131208
 21
57.34622924408756
 31
5.000000000000306
  0
LINE
  5
F1
330
1F
100
AcDbEntity
  8
0
100
AcDbLine
 10
189.3080538081401
 20
62.64405472169802
 30
0.0000000000002707
 11
189.2332410180516
 21
63.12087645035563
 31
5.000000000000217
  0
LINE
  5
F2
330
1F
100
AcDbEntity
  8
0
100
AcDbLine
 10
54.05321311492199
 20
-1.960213593385109
 30
0.0000000000002707
 11
54.80123368003803
 21
-7.016004065229448
 31
4.999999999999946
  0
LINE
  5
F3
330
1F
100
AcDbEntity
  8
0
100
AcDbLine
 10
189.0105649966056
 20
70.29193966916591
 30
0.000000000000361
 11
188.9357522065169
 21
70.76876139782334
 31
5.000000000000306
  0
LINE
  5
F4
330
1F
100
AcDbEntity
  8
0
100
AcDbLine
 10
176.6059656847044
 20
136.7395687750783
 30
0.000000000000361
 11
176.5311528946149
 21
137.2163905037357
 31
5.000000000000306
  0
LINE
  5
F5
330
1F
100
AcDbEntity
  8
0
100
AcDbLine
 10
182.3806128909725
 20
144.9037251701467
 30
0.0000000000002707
 11
182.3058001008833
 21
145.3805468988044
 31
5.000000000000217
  0
LINE
  5
F6
330
1F
100
AcDbEntity
  8
0
100
AcDbLine
 10
180.1722752903069
 20
143.5115758305733
 30
0.0000000000002707
 11
180.0974625002178
 21
143.9883975592307
 31
5.000000000000217
  0
LINE
  5
F7
330
1F
100
AcDbEntity
  8
0
100
AcDbLine
 10
171.5668532215014
 20
166.1343914770914
 30
0.0000000000004512
 11
171.492040431412
 21
166.6112132057488
 31
5.000000000000397
  0
LINE
  5
F8
330
1F
100
AcDbEntity
  8
0
100
AcDbLine
 10
189.0125479433132
 20
91.94331868803724
 30
0.000000000000361
 11
188.9377351532242
 21
92.4201404166944
 31
5.000000000000217
  0
LINE
  5
F9
330
1F
100
AcDbEntity
  8
0
100
AcDbLine
 10
203.3859437320889
 20
22.37262859696572
 30
0.0000000000002707
 11
203.311130942
 21
22.84945032562297
 31
5.000000000000126
  0
LINE
  5
FA
330
1F
100
AcDbEntity
  8
0
100
AcDbLine
 10
72.4173823874627
 20
-3.305642641931713
 30
0.0000000000002707
 11
73.17625193733738
 21
-8.318042914819374
 31
4.999999999999946
  0
LINE
  5
FB
330
1F
100
AcDbEntity
  8
0
100
AcDbLine
 10
197.9134758769459
 20
40.02123907518003
 30
0.0000000000004512
 11
197.8386630868571
 21
40.49806080383737
 31
5.000000000000036
  0
LINE
  5
FC
330
1F
100
AcDbEntity
  8
0
100
AcDbLine
 10
201.0015889566226
 20
1.847214813840571
 30
0.0000000000002707
 11
201.8015449599925
 21
-2.855317018970977
 31
5.000000000000487
  0
LINE
  5
FD
330
1F
100
AcDbEntity
  8
0
100
AcDbLine
 10
170.7937000494239
 20
168.6277965614476
 30
0.000000000000361
 11
170.7188872593347
 21
169.1046182901045
 31
5.000000000000306
  0
LINE
  5
FE
330
1F
100
AcDbEntity
  8
0
100
AcDbLine
 10
186.7027424490481
 20
93.1597204805586
 30
0.0000000000002707
 11
186.6279296589593
 21
93.63654220921595
 31
5.000000000000306
  0
LINE
  5
FF
330
1F
100
AcDbEntity
  8
0
100
AcDbLine
 10
182.7317331425762
 20
-0.4474008248046168
 30
0.000000000000361
 11
183.5295906984055
 21
-5.194609344531767
 31
4.999999999999946
  0
LINE
  5
100
330
1F
100
AcDbEntity
  8
0
100
AcDbLine
 10
-0.0000000000010829
 20
0.0
 30
4.999999999999946
 11
4.227958527057805
 21
4.397300519405107
 31
0.0000000000004512
  0
LINE
  5
101
330
1F
100
AcDbEntity
  8
0
100
AcDbLine
 10
194.4486341649432
 20
30.64068088759009
 30
0.000000000000361
 11
194.3738213748537
 21
31.11750261624734
 31
4.999999999999946
  0
LINE
  5
102
330
1F
100
AcDbEntity
  8
0
100
AcDbLine
 10
170.6922321558239
 20
171.2363476935427
 30
0.0000000000002707
 11
170.6174193657353
 21
171.7131694221997
 31
5.000000000000217
  0
LINE
  5
103
330
1F
100
AcDbEntity
  8
0
100
AcDbLine
 10
200.8400150010726
 20
22.94976085110823
 30
0.000000000000361
 11
200.7652022109835
 21
23.42658257976566
 31
5.000000000000036
  0
LINE
  5
104
330
1F
100
AcDbEntity
  8
0
100
AcDbLine
 10
146.03387424967
 20
-3.481748494960786
 30
0.0000000000002707
 11
146.8237480626611
 21
-8.318042914819465
 31
5.000000000000397
  0
LINE
  5
105
330
1F
100
AcDbEntity
  8
0
100
AcDbLine
 10
194.2080799487311
 20
75.91016733321803
 30
0.0000000000004512
 11
194.1332671586421
 21
76.38698906187554
 31
5.000000000000036
  0
LINE
  5
106
330
1F
100
AcDbEntity
  8
0
100
AcDbLine
 10
190.2269667891274
 20
72.60174516343092
 30
0.0000000000002707
 11
190.1521539990382
 21
73.07856689208826
 31
5.000000000000217
  0
LINE
  5
107
330
1F
100
AcDbEntity
  8
0
100
AcDbLine
 10
176.7074335783043
 20
134.1310176429832
 30
0.0000000000001805
 11
176.6326207882148
 21
134.6078393716404
 31
5.000000000000126
  0
LINE
  5
108
330
1F
100
AcDbEntity
  8
0
100
AcDbLine
 10
194.9242985254855
 20
35.79516075070158
 30
0.0000000000001805
 11
194.8494857353967
 21
36.27198247935893
 31
5.000000000000217
  0
LINE
  5
109
330
1F
100
AcDbEntity
  8
0
100
AcDbLine
 10
188.4334327424632
 20
67.74601093814945
 30
0.0000000000004512
 11
188.3586199523741
 21
68.22283266680678
 31
5.000000000000036
  0
LINE
  5
10A
330
1F
100
AcDbEntity
  8
0
100
AcDbLine
 10
200.1218134776106
 20
41.41338841475388
 30
0.000000000000361
 11
200.0470006875223
 21
41.89021014341113
 31
5.000000000000217
  0
LINE
  5
10B
330
1F
100
AcDbEntity
  8
0
100
AcDbLine
 10
35.73446099989422
 20
-0.0957529895331696
 30
0.000000000000361
 11
36.47040930159419
 21
-5.194609344532038
 31
5.000000000000306
  0
LINE
  5
10C
330
1F
100
AcDbEntity
  8
0
100
AcDbLine
 10
191.999742348066
 20
74.51801799364435
 30
0.0000000000002707
 11
191.9249295579774
 21
74.99483972230186
 31
5.000000000000217
  0
LINE
  5
10D
330
1F
100
AcDbEntity
  8
0
100
AcDbLine
 10
17.47579261494217
 20
2.286246423470606
 30
0.000000000000361
 11
18.19845504000587
 21
-2.855317018971067
 31
4.999999999999946
  0
LINE
  5
10E
330
1F
100
AcDbEntity
  8
0
100
AcDbLine
 10
200.080761335304
 20
56.97087540903004
 30
0.0000000000001805
 11
200.0059485452152
 21
57.44769713768747
 31
5.000000000000126
  0
LINE
  5
10F
330
1F
100
AcDbEntity
  8
0
100
AcDbLine
 10
194.347166271343
 20
33.24923201968512
 30
0.000000000000361
 11
194.2723534812539
 21
33.72605374834256
 31
5.000000000000036
  0
LINE
  5
110
330
1F
100
AcDbEntity
  8
0
100
AcDbLine
 10
164.4042703913994
 20
-2.224196113914515
 30
0.0000000000004512
 11
165.1987663199608
 21
-7.016004065229538
 31
5.000000000000036
  0
LINE
  5
111
330
1F
100
AcDbEntity
  8
0
100
AcDbLine
 10
192.6164759779279
 20
58.66294156209401
 30
0.0000000000002707
 11
192.541663187839
 21
59.13976329075162
 31
5.000000000000126
  0
LINE
  5
112
330
1F
100
AcDbEntity
  8
0
100
AcDbLine
 10
205.9944948641838
 20
22.47409649056562
 30
0.0000000000004512
 11
205.9196820740955
 21
22.95091821922315
 31
5.000000000000217
  0
LINE
  5
113
330
1F
100
AcDbEntity
  8
0
100
AcDbLine
 10
109.2231360743823
 20
-4.435513716363966
 30
0.0000000000004512
 11
109.9999999999991
 21
-9.360299834039393
 31
5.000000000000306
  0
LINE
  5
114
330
1F
100
AcDbEntity
  8
0
100
AcDbLine
 10
188.534900636063
 20
65.13745980605422
 30
0.000000000000361
 11
188.4600878459745
 21
65.6142815347113
 31
5.000000000000306
  0
LINE
  5
115
330
1F
100
AcDbEntity
  8
0
100
AcDbLine
 10
64.20532070649675
 20
345.0718887259338
 30
0.0000000000002707
 11
59.99999999999888
 21
350.0000000000006
 31
5.000000000000487
  0
LINE
  5
116
330
1F
100
AcDbEntity
  8
0
100
AcDbLine
 10
127.6352526377936
 20
-4.219051131717289
 30
0.000000000000361
 11
128.4192475475243
 21
-9.099683439801247
 31
5.000000000000397
  0
LINE
  5
117
330
1F
100
AcDbEntity
  8
0
100
AcDbLine
 10
195.2217873370205
 20
28.14727580323379
 30
0.0000000000005414
 11
195.1469745469315
 21
28.6240975318914
 31
5.000000000000126
  0
LINE
  5
118
330
1F
100
AcDbEntity
  8
0
100
AcDbLine
 10
196.6139366765938
 20
25.93893820256904
 30
0.0000000000005414
 11
196.5391238865052
 21
26.41575993122602
 31
5.000000000000036
  0
LINE
  5
119
330
1F
100
AcDbEntity
  8
0
100
AcDbLine
 10
172.9590025610752
 20
163.9260538764263
 30
0.000000000000361
 11
172.8841897709862
 21
164.4028756050835
 31
5.000000000000306
  0
LINE
  5
11A
330
1F
100
AcDbEntity
  8
0
100
AcDbLine
 10
190.7002031477139
 20
60.43571712103318
 30
0.0000000000004512
 11
190.6253903576251
 21
60.91253884969034
 31
5.000000000000036
  0
LINE
  5
11B
330
1F
100
AcDbEntity
  8
0
100
AcDbLine
 10
90.81226588253485
 20
-4.130962942106907
 30
0.0000000000005414
 11
91.58075245247377
 21
-9.099683439801607
 31
5.000000000000217
  0
LINE
  5
11C
330
1F
100
AcDbEntity
  8
0
100
AcDbLine
 10
196.1407003180067
 20
38.1049662449666
 30
0.0000000000002707
 11
196.0658875279182
 21
38.58178797362367
 31
5.000000000000036
  0
LINE
  5
11D
330
1F
100
AcDbEntity
  8
0
100
AcDbLine
 10
198.5302095068074
 20
24.16616264362969
 30
0.0000000000002707
 11
198.4553967167185
 21
24.64298437228694
 31
5.000000000000217
  0
LINE
  5
11E
330
1F
100
AcDbEntity
  8
0
100
AcDbLine
 10
205.0088730499958
 20
57.81569456012002
 30
0.000000000000361
 11
207.5433302766582
 21
43.03136073792142
 31
0.0000000000002707
  0
LINE
  5
11F
330
1F
100
AcDbEntity
  8
0
100
AcDbLine
 10
181.353938934477
 20
195.8028102339774
 30
0.0000000000002707
 11
176.4258272197862
 21
194.9579910828876
 31
0.000000000000361
  0
LINE
  5
120
330
1F
100
AcDbEntity
  8
0
100
AcDbLine
 10
160.2334620456203
 20
319.0055920856357
 30
0.0000000000002707
 11
165.0867600889735
 21
320.3272328143115
 31
5.000000000000126
  0
LINE
  5
121
330
1F
100
AcDbEntity
  8
0
100
AcDbLine
 10
163.6127383478371
 20
299.2931469893705
 30
0.0000000000002707
 11
166.1471955744996
 21
284.5088131671715
 31
0.0000000000001805
  0
LINE
  5
122
330
1F
100
AcDbEntity
  8
0
100
AcDbLine
 10
177.9746624119476
 20
215.5152552924752
 30
-0.0000002235255231
 11
182.8279606756127
 21
216.8368960589186
 31
5.000000000000306
  0
LINE
  5
123
330
1F
100
AcDbEntity
  8
0
100
AcDbLine
 10
155.7718821278208
 20
345.0718887259337
 30
0.000000000000361
 11
64.20532070649675
 21
345.0718887259338
 31
0.0000000000002707
  0
LINE
  5
124
330
1F
100
AcDbEntity
  8
0
100
AcDbLine
 10
187.2676724633565
 20
161.3060313155133
 30
0.000000000000361
 11
182.3395607486653
 21
160.4612121644233
 31
0.000000000000361
  0
LINE
  5
125
330
1F
100
AcDbEntity
  8
0
100
AcDbLine
 10
193.1814059922366
 20
126.8092523970489
 30
0.000000000000361
 11
188.2532942775451
 21
125.9644332459589
 31
0.0000000000002707
  0
LINE
  5
126
330
1F
100
AcDbEntity
  8
0
100
AcDbLine
 10
180.2935034489498
 20
231.621229881118
 30
5.000000000000306
 11
175.4402054055969
 21
230.2995891524419
 31
0.000000000000361
  0
LINE
  5
127
330
1F
100
AcDbEntity
  8
0
100
AcDbLine
 10
175.4402054055969
 20
230.2995891524419
 30
0.000000000000361
 11
170.5120936909061
 21
229.4547700013521
 31
0.0000000000004512
  0
LINE
  5
128
330
1F
100
AcDbEntity
  8
0
100
AcDbLine
 10
169.5264718767171
 20
264.7963680709062
 30
0.0000000000004512
 11
164.5983601620262
 21
263.9515489198164
 31
0.0000000000005414
  0
LINE
  5
129
330
1F
100
AcDbEntity
  8
0
100
AcDbLine
 10
192.1209705067092
 20
162.6276720441891
 30
5.000000000000217
 11
187.2676724633565
 21
161.3060313155133
 31
0.000000000000361
  0
LINE
  5
12A
330
1F
100
AcDbEntity
  8
0
100
AcDbLine
 10
172.0609291033796
 20
250.0120342487074
 30
0.0000000000004512
 11
176.9142271467327
 21
251.3336749773829
 31
5.000000000000036
  0
LINE
  5
12B
330
1F
100
AcDbEntity
  8
0
100
AcDbLine
 10
205.0088730499958
 20
57.81569456012002
 30
0.000000000000361
 11
200.080761335304
 21
56.97087540903004
 31
0.0000000000001805
  0
LINE
  5
12C
330
1F
100
AcDbEntity
  8
0
100
AcDbLine
 10
210.9226065788754
 20
23.31891564165543
 30
0.0000000000002707
 11
205.9944948641838
 21
22.47409649056562
 31
0.0000000000004512
  0
LINE
  5
12D
330
1F
100
AcDbEntity
  8
0
100
AcDbLine
 10
198.034704035589
 20
128.1308931257249
 30
5.000000000000036
 11
193.1814059922366
 21
126.8092523970489
 31
0.000000000000361
  0
LINE
  5
12E
330
1F
100
AcDbEntity
  8
0
100
AcDbLine
 10
195.715863218899
 20
112.0249185748499
 30
0.000000000000361
 11
200.5691612622517
 21
113.346559303526
 31
5.000000000000217
  0
LINE
  5
12F
330
1F
100
AcDbEntity
  8
0
100
AcDbLine
 10
174.3797699200702
 20
266.1180087995821
 30
5.000000000000217
 11
169.5264718767171
 21
264.7963680709062
 31
0.0000000000004512
  0
LINE
  5
130
330
1F
100
AcDbEntity
  8
0
100
AcDbLine
 10
199.0951395211158
 20
92.31247347858452
 30
0.000000000000361
 11
194.1670278064243
 21
91.46765432749444
 31
0.000000000000361
  0
LINE
  5
131
330
1F
100
AcDbEntity
  8
0
100
AcDbLine
 10
163.6127383478371
 20
299.2931469893705
 30
0.0000000000002707
 11
158.6846266331466
 21
298.4483278382808
 31
0.0000000000002707
  0
LINE
  5
132
330
1F
100
AcDbEntity
  8
0
100
AcDbLine
 10
203.9484375644685
 20
93.63411420726024
 30
5.000000000000036
 11
199.0951395211158
 21
92.31247347858452
 31
0.000000000000361
  0
ARC
  5
133
330
1F
100
AcDbEntity
  8
0
100
AcDbCircle
 10
-110.7798714056886
 20
646.3173822126722
 30
-0.0000000000005239
 40
650.7547579425891
210
9.158912920136831E-17
220
-5.471136228822423E-16
230
-1.0
100
AcDbArc
 50
260.8495651776853
 51
279.4245608972382
  0
LINE
  5
134
330
1F
100
AcDbEntity
  8
0
100
AcDbLine
 10
209.8621710933484
 20
59.13733528879582
 30
4.999999999999946
 11
205.0088730499958
 21
57.81569456012002
 31
0.000000000000361
  0
LINE
  5
135
330
1F
100
AcDbEntity
  8
0
100
AcDbLine
 10
160.0000000000033
 20
350.0000000000005
 30
4.999999999999946
 11
155.7718821278208
 21
345.0718887259337
 31
0.000000000000361
  0
LINE
  5
136
330
1F
100
AcDbEntity
  8
0
100
AcDbLine
 10
166.1471955744996
 20
284.5088131671715
 30
0.0000000000001805
 11
171.0004936178531
 21
285.8304538958473
 31
5.000000000000126
  0
LINE
  5
137
330
1F
100
AcDbEntity
  8
0
100
AcDbLine
 10
176.9142271467327
 20
251.3336749773829
 30
5.000000000000036
 11
174.3797699200702
 21
266.1180087995821
 31
5.000000000000217
  0
LINE
  5
138
330
1F
100
AcDbEntity
  8
0
100
AcDbLine
 10
165.0867600889735
 20
320.3272328143115
 30
5.000000000000126
 11
160.0000000000033
 21
350.0000000000005
 31
4.999999999999946
  0
LINE
  5
139
330
1F
100
AcDbEntity
  8
0
100
AcDbLine
 10
189.8021296900195
 20
146.5216974933143
 30
0.000000000000361
 11
194.6554277333715
 21
147.8433382219901
 31
5.000000000000306
  0
LINE
  5
13A
330
1F
100
AcDbEntity
  8
0
100
AcDbLine
 10
188.7416942044925
 20
182.3401171404543
 30
5.000000000000397
 11
186.2072369778302
 21
197.1244509626533
 31
5.000000000000306
  0
LINE
  5
13B
330
1F
100
AcDbEntity
  8
0
100
AcDbLine
 10
168.4660363911906
 20
300.6147877180464
 30
5.000000000000126
 11
163.6127383478371
 21
299.2931469893705
 31
0.0000000000002707
  0
LINE
  5
13C
330
1F
100
AcDbEntity
  8
0
100
AcDbLine
 10
207.5433302766582
 20
43.03136073792142
 30
0.0000000000002707
 11
212.3966283200112
 21
44.35300146659687
 31
5.000000000000126
  0
LINE
  5
13D
330
1F
100
AcDbEntity
  8
0
100
AcDbLine
 10
183.8883961611394
 20
181.0184764117784
 30
0.0000000000002707
 11
188.7416942044925
 21
182.3401171404543
 31
5.000000000000397
  0
LINE
  5
13E
330
1F
100
AcDbEntity
  8
0
100
AcDbLine
 10
201.6295967477785
 20
77.52813965638556
 30
0.0000000000002707
 11
206.4828947911308
 21
78.84978038506136
 31
5.000000000000217
  0
LINE
  5
13F
330
1F
100
AcDbEntity
  8
0
100
AcDbLine
 10
194.6554277333715
 20
147.8433382219901
 30
5.000000000000306
 11
192.1209705067092
 21
162.6276720441891
 31
5.000000000000217
  0
LINE
  5
140
330
1F
100
AcDbEntity
  8
0
100
AcDbLine
 10
171.0004936178531
 20
285.8304538958473
 30
5.000000000000126
 11
168.4660363911906
 21
300.6147877180464
 31
5.000000000000126
  0
LINE
  5
141
330
1F
100
AcDbEntity
  8
0
100
AcDbLine
 10
201.6295967477785
 20
77.52813965638556
 30
0.0000000000002707
 11
199.0951395211158
 21
92.31247347858452
 31
0.000000000000361
  0
LINE
  5
142
330
1F
100
AcDbEntity
  8
0
100
AcDbLine
 10
206.4828947911308
 20
78.84978038506136
 30
5.000000000000217
 11
203.9484375644685
 21
93.63411420726024
 31
5.000000000000036
  0
LINE
  5
143
330
1F
100
AcDbEntity
  8
0
100
AcDbLine
 10
219.9999999999985
 20
0.0000000000000902
 30
4.999999999999946
 11
215.7759046222282
 21
24.6405563703315
 31
5.000000000000487
  0
LINE
  5
144
330
1F
100
AcDbEntity
  8
0
100
AcDbLine
 10
200.5691612622517
 20
113.346559303526
 30
5.000000000000217
 11
198.034704035589
 21
128.1308931257249
 31
5.000000000000036
  0
LINE
  5
145
330
1F
100
AcDbEntity
  8
0
100
AcDbLine
 10
195.715863218899
 20
112.0249185748499
 30
0.000000000000361
 11
193.1814059922366
 21
126.8092523970489
 31
0.000000000000361
  0
LINE
  5
146
330
1F
100
AcDbEntity
  8
0
100
AcDbLine
 10
177.9746624119476
 20
215.5152552924752
 30
-0.0000002235255231
 11
175.4402054055969
 21
230.2995891524419
 31
0.000000000000361
  0
LINE
  5
147
330
1F
100
AcDbEntity
  8
0
100
AcDbLine
 10
160.2334620456203
 20
319.0055920856357
 30
0.0000000000002707
 11
155.7718821278208
 21
345.0718887259337
 31
0.000000000000361
  0
LINE
  5
148
330
1F
100
AcDbEntity
  8
0
100
AcDbLine
 10
183.8883961611394
 20
181.0184764117784
 30
0.0000000000002707
 11
181.353938934477
 21
195.8028102339774
 31
0.0000000000002707
  0
LINE
  5
149
330
1F
100
AcDbEntity
  8
0
100
AcDbLine
 10
189.8021296900195
 20
146.5216974933143
 30
0.000000000000361
 11
187.2676724633565
 21
161.3060313155133
 31
0.000000000000361
  0
LINE
  5
14A
330
1F
100
AcDbEntity
  8
0
100
AcDbLine
 10
215.7759046222282
 20
24.6405563703315
 30
5.000000000000487
 11
210.9226065788754
 21
23.31891564165543
 31
0.0000000000002707
  0
LINE
  5
14B
330
1F
100
AcDbEntity
  8
0
100
AcDbLine
 10
186.2072369778302
 20
197.1244509626533
 30
5.000000000000306
 11
181.353938934477
 21
195.8028102339774
 31
0.0000000000002707
  0
LINE
  5
14C
330
1F
100
AcDbEntity
  8
0
100
AcDbLine
 10
212.3966283200112
 20
44.35300146659687
 30
5.000000000000126
 11
209.8621710933484
 21
59.13733528879582
 31
4.999999999999946
  0
LINE
  5
14D
330
1F
100
AcDbEntity
  8
0
100
AcDbLine
 10
172.0609291033796
 20
250.0120342487074
 30
0.0000000000004512
 11
169.5264718767171
 21
264.7963680709062
 31
0.0000000000004512
  0
LINE
  5
14E
330
1F
100
AcDbEntity
  8
0
100
AcDbLine
 10
214.2593724002449
 20
3.894862136805923
 30
0.0000000000005414
 11
219.9999999999985
 21
0.0000000000000902
 31
4.999999999999946
  0
LINE
  5
14F
330
1F
100
AcDbEntity
  8
0
100
AcDbLine
 10
214.2593724002449
 20
3.894862136805923
 30
0.0000000000005414
 11
210.9226065788754
 21
23.31891564165543
 31
0.0000000000002707
  0
LINE
  5
150
330
1F
100
AcDbEntity
  8
0
100
AcDbLine
 10
182.8279606756127
 20
216.8368960589186
 30
5.000000000000306
 11
180.2935034489498
 21
231.621229881118
 31
5.000000000000306
  0
LINE
  5
151
330
1F
100
AcDbEntity
  8
0
100
AcDbLine
 10
18.19845504000587
 20
-2.855317018971067
 30
4.999999999999946
 11
4.227958527057805
 21
4.397300519405107
 31
0.0000000000004512
  0
LINE
  5
152
330
1F
100
AcDbEntity
  8
0
100
AcDbLine
 10
146.8237480626611
 20
-8.318042914819465
 30
5.000000000000397
 11
127.6352526377936
 21
-4.219051131717289
 31
0.000000000000361
  0
LINE
  5
153
330
1F
100
AcDbEntity
  8
0
100
AcDbLine
 10
109.9999999999991
 20
-9.360299834039393
 30
5.000000000000306
 11
90.81226588253485
 21
-4.130962942106907
 31
0.0000000000005414
  0
LINE
  5
154
330
1F
100
AcDbEntity
  8
0
100
AcDbLine
 10
36.47040930159419
 20
-5.194609344532038
 30
5.000000000000306
 11
17.47579261494217
 21
2.286246423470606
 31
0.000000000000361
  0
LINE
  5
155
330
1F
100
AcDbEntity
  8
0
100
AcDbLine
 10
219.9999999999985
 20
0.0000000000000902
 30
4.999999999999946
 11
201.0015889566226
 21
1.847214813840571
 31
0.0000000000002707
  0
LINE
  5
156
330
1F
100
AcDbEntity
  8
0
100
AcDbLine
 10
54.80123368003803
 20
-7.016004065229448
 30
4.999999999999946
 11
35.73446099989422
 21
-0.0957529895331696
 31
0.000000000000361
  0
LINE
  5
157
330
1F
100
AcDbEntity
  8
0
100
AcDbLine
 10
201.8015449599925
 20
-2.855317018970977
 30
5.000000000000487
 11
182.7317331425762
 21
-0.4474008248046168
 31
0.000000000000361
  0
LINE
  5
158
330
1F
100
AcDbEntity
  8
0
100
AcDbLine
 10
73.17625193733738
 20
-8.318042914819374
 30
4.999999999999946
 11
54.05321311492199
 21
-1.960213593385109
 31
0.0000000000002707
  0
LINE
  5
159
330
1F
100
AcDbEntity
  8
0
100
AcDbLine
 10
183.5295906984055
 20
-5.194609344531767
 30
4.999999999999946
 11
164.4042703913994
 21
-2.224196113914515
 31
0.0000000000004512
  0
LINE
  5
15A
330
1F
100
AcDbEntity
  8
0
100
AcDbLine
 10
165.1987663199608
 20
-7.016004065229538
 30
5.000000000000036
 11
146.03387424967
 21
-3.481748494960786
 31
0.0000000000002707
  0
LINE
  5
15B
330
1F
100
AcDbEntity
  8
0
100
AcDbLine
 10
91.58075245247377
 20
-9.099683439801607
 30
5.000000000000217
 11
72.4173823874627
 21
-3.305642641931713
 31
0.0000000000002707
  0
LINE
  5
15C
330
1F
100
AcDbEntity
  8
0
100
AcDbLine
 10
128.4192475475243
 20
-9.099683439801247
 30
5.000000000000397
 11
109.2231360743823
 21
-4.435513716363966
 31
0.0000000000004512
  0
LINE
  5
15D
330
1F
100
AcDbEntity
  8
0
100
AcDbLine
 10
64.20532070649675
 20
345.0718887259338
 30
0.0000000000002707
 11
-0.0000000000010829
 21
0.0
 31
4.999999999999946
  0
LINE
  5
15E
330
1F
100
AcDbEntity
  8
0
100
AcDbLine
 10
178.9602844464488
 20
180.1736572606886
 30
0.0000000000002707
 11
178.885471656359
 21
180.6504789893457
 31
5.000000000000126
  0
POLYLINE
  5
15F
330
1F
100
AcDbEntity
  8
0
100
AcDbPolyFaceMesh
 66
     1
 10
0.0
 20
0.0
 30
0.0
 70
    64
 71
     4
 72
     2
  0
VERTEX
  5
160
330
15F
100
AcDbEntity
  8
0
100
AcDbVertex
100
AcDbPolyFaceMeshVertex
 10
171.0004936178531
 20
285.8304538958473
 30
5.000000000000126
 70
   192
  0
VERTEX
  5
161
330
15F
100
AcDbEntity
  8
0
100
AcDbVertex
100
AcDbPolyFaceMeshVertex
 10
161.2190838598095
 20
283.6639940160817
 30
0.0000000000002707
 70
   192
  0
VERTEX
  5
162
330
15F
100
AcDbEntity
  8
0
100
AcDbVertex
100
AcDbPolyFaceMeshVertex
 10
166.1471955744996
 20
284.5088131671715
 30
0.0000000000001805
 70
   192
  0
VERTEX
  5
163
330
15F
100
AcDbEntity
  8
0
100
AcDbVertex
100
AcDbPolyFaceMeshVertex
 10
161.1442710697206
 20
284.1408157447389
 30
5.000000000000217
 70
   192
  0
VERTEX
  5
164
330
15F
100
AcDbEntity
  8
0
100
AcDbFaceRecord
 10
0.0
 20
0.0
 30
0.0
 70
   128
 71
    -1
 72
     2
 73
     3
  0
VERTEX
  5
165
330
15F
100
AcDbEntity
  8
0
100
AcDbFaceRecord
 10
0.0
 20
0.0
 30
0.0
 70
   128
 71
    -2
 72
     1
 73
     4
  0
SEQEND
  5
166
330
15F
100
AcDbEntity
  8
0
  0
POLYLINE
  5
167
330
1F
100
AcDbEntity
  8
0
100
AcDbPolyFaceMesh
 66
     1
 10
0.0
 20
0.0
 30
0.0
 70
    64
 71
     4
 72
     2
  0
VERTEX
  5
168
330
167
100
AcDbEntity
  8
0
100
AcDbVertex
100
AcDbPolyFaceMeshVertex
 10
153.8256526348624
 20
269.6247282324845
 30
0.000000000000361
 70
   192
  0
VERTEX
  5
169
330
167
100
AcDbEntity
  8
0
100
AcDbVertex
100
AcDbPolyFaceMeshVertex
 10
155.1429891843472
 20
267.8932123604766
 30
5.000000000000126
 70
   192
  0
VERTEX
  5
16A
330
167
100
AcDbEntity
  8
0
100
AcDbVertex
100
AcDbPolyFaceMeshVertex
 10
155.2178019744363
 20
267.4163906318194
 30
0.000000000000361
 70
   192
  0
VERTEX
  5
16B
330
167
100
AcDbEntity
  8
0
100
AcDbVertex
100
AcDbPolyFaceMeshVertex
 10
153.7508398447739
 20
270.1015499611415
 30
5.000000000000036
 70
   192
  0
VERTEX
  5
16C
330
167
100
AcDbEntity
  8
0
100
AcDbFaceRecord
 10
0.0
 20
0.0
 30
0.0
 70
   128
 71
    -1
 72
     2
 73
     3
  0
VERTEX
  5
16D
330
167
100
AcDbEntity
  8
0
100
AcDbFaceRecord
 10
0.0
 20
0.0
 30
0.0
 70
   128
 71
    -2
 72
     1
 73
     4
  0
SEQEND
  5
16E
330
167
100
AcDbEntity
  8
0
  0
POLYLINE
  5
16F
330
1F
100
AcDbEntity
  8
0
100
AcDbPolyFaceMesh
 66
     1
 10
0.0
 20
0.0
 30
0.0
 70
    64
 71
     4
 72
     2
  0
VERTEX
  5
170
330
16F
100
AcDbEntity
  8
0
100
AcDbVertex
100
AcDbPolyFaceMeshVertex
 10
172.0609291033796
 20
250.0120342487074
 30
0.0000000000004512
 70
   192
  0
VERTEX
  5
171
330
16F
100
AcDbEntity
  8
0
100
AcDbVertex
100
AcDbPolyFaceMeshVertex
 10
167.0580045986
 20
249.6440368262747
 30
5.000000000000036
 70
   192
  0
VERTEX
  5
172
330
16F
100
AcDbEntity
  8
0
100
AcDbVertex
100
AcDbPolyFaceMeshVertex
 10
167.1328173886891
 20
249.1672150976173
 30
0.0000000000002707
 70
   192
  0
VERTEX
  5
173
330
16F
100
AcDbEntity
  8
0
100
AcDbVertex
100
AcDbPolyFaceMeshVertex
 10
176.9142271467327
 20
251.3336749773829
 30
5.000000000000036
 70
   192
  0
VERTEX
  5
174
330
16F
100
AcDbEntity
  8
0
100
AcDbFaceRecord
 10
0.0
 20
0.0
 30
0.0
 70
   128
 71
    -1
 72
     2
 73
     3
  0
VERTEX
  5
175
330
16F
100
AcDbEntity
  8
0
100
AcDbFaceRecord
 10
0.0
 20
0.0
 30
0.0
 70
   128
 71
    -2
 72
     1
 73
     4
  0
SEQEND
  5
176
330
16F
100
AcDbEntity
  8
0
  0
POLYLINE
  5
177
330
1F
100
AcDbEntity
  8
0
100
AcDbPolyFaceMesh
 66
     1
 10
0.0
 20
0.0
 30
0.0
 70
    64
 71
     4
 72
     2
  0
VERTEX
  5
178
330
177
100
AcDbEntity
  8
0
100
AcDbVertex
100
AcDbPolyFaceMeshVertex
 10
159.7393861637422
 20
235.1279493140201
 30
0.0000000000004512
 70
   192
  0
VERTEX
  5
179
330
177
100
AcDbEntity
  8
0
100
AcDbVertex
100
AcDbPolyFaceMeshVertex
 10
161.056722713227
 20
233.3964334420123
 30
5.000000000000036
 70
   192
  0
VERTEX
  5
17A
330
177
100
AcDbEntity
  8
0
100
AcDbVertex
100
AcDbPolyFaceMeshVertex
 10
161.1315355033158
 20
232.919611713355
 30
0.000000000000361
 70
   192
  0
VERTEX
  5
17B
330
177
100
AcDbEntity
  8
0
100
AcDbVertex
100
AcDbPolyFaceMeshVertex
 10
159.6645733736531
 20
235.6047710426773
 30
5.000000000000126
 70
   192
  0
VERTEX
  5
17C
330
177
100
AcDbEntity
  8
0
100
AcDbFaceRecord
 10
0.0
 20
0.0
 30
0.0
 70
   128
 71
    -1
 72
     2
 73
     3
  0
VERTEX
  5
17D
330
177
100
AcDbEntity
  8
0
100
AcDbFaceRecord
 10
0.0
 20
0.0
 30
0.0
 70
   128
 71
    -2
 72
     1
 73
     4
  0
SEQEND
  5
17E
330
177
100
AcDbEntity
  8
0
  0
POLYLINE
  5
17F
330
1F
100
AcDbEntity
  8
0
100
AcDbPolyFaceMesh
 66
     1
 10
0.0
 20
0.0
 30
0.0
 70
    64
 71
     4
 72
     2
  0
VERTEX
  5
180
330
17F
100
AcDbEntity
  8
0
100
AcDbVertex
100
AcDbPolyFaceMeshVertex
 10
182.8279606756127
 20
216.8368960589186
 30
5.000000000000306
 70
   192
  0
VERTEX
  5
181
330
17F
100
AcDbEntity
  8
0
100
AcDbVertex
100
AcDbPolyFaceMeshVertex
 10
173.0465509175689
 20
214.6704361791529
 30
0.0000000000002707
 70
   192
  0
VERTEX
  5
182
330
17F
100
AcDbEntity
  8
0
100
AcDbVertex
100
AcDbPolyFaceMeshVertex
 10
177.9746624119476
 20
215.5152552924752
 30
-0.0000002235255231
 70
   192
  0
VERTEX
  5
183
330
17F
100
AcDbEntity
  8
0
100
AcDbVertex
100
AcDbPolyFaceMeshVertex
 10
172.9717381274796
 20
215.1472579078103
 30
5.000000000000217
 70
   192
  0
VERTEX
  5
184
330
17F
100
AcDbEntity
  8
0
100
AcDbFaceRecord
 10
0.0
 20
0.0
 30
0.0
 70
   128
 71
    -1
 72
     2
 73
     3
  0
VERTEX
  5
185
330
17F
100
AcDbEntity
  8
0
100
AcDbFaceRecord
 10
0.0
 20
0.0
 30
0.0
 70
   128
 71
    -2
 72
     1
 73
     4
  0
SEQEND
  5
186
330
17F
100
AcDbEntity
  8
0
  0
POLYLINE
  5
187
330
1F
100
AcDbEntity
  8
0
100
AcDbPolyFaceMesh
 66
     1
 10
0.0
 20
0.0
 30
0.0
 70
    64
 71
     4
 72
     2
  0
VERTEX
  5
188
330
187
100
AcDbEntity
  8
0
100
AcDbVertex
100
AcDbPolyFaceMeshVertex
 10
158.9662329916646
 20
237.6213543983762
 30
0.0000000000002707
 70
   192
  0
VERTEX
  5
189
330
187
100
AcDbEntity
  8
0
100
AcDbVertex
100
AcDbPolyFaceMeshVertex
 10
159.6645733736531
 20
235.6047710426773
 30
5.000000000000126
 70
   192
  0
VERTEX
  5
18A
330
187
100
AcDbEntity
  8
0
100
AcDbVertex
100
AcDbPolyFaceMeshVertex
 10
159.7393861637422
 20
235.1279493140201
 30
0.0000000000004512
 70
   192
  0
VERTEX
  5
18B
330
187
100
AcDbEntity
  8
0
100
AcDbVertex
100
AcDbPolyFaceMeshVertex
 10
158.8914202015761
 20
238.0981761270337
 30
5.000000000000306
 70
   192
  0
VERTEX
  5
18C
330
187
100
AcDbEntity
  8
0
100
AcDbFaceRecord
 10
0.0
 20
0.0
 30
0.0
 70
   128
 71
    -1
 72
     2
 73
     3
  0
VERTEX
  5
18D
330
187
100
AcDbEntity
  8
0
100
AcDbFaceRecord
 10
0.0
 20
0.0
 30
0.0
 70
   128
 71
    -2
 72
     1
 73
     4
  0
SEQEND
  5
18E
330
187
100
AcDbEntity
  8
0
  0
POLYLINE
  5
18F
330
1F
100
AcDbEntity
  8
0
100
AcDbPolyFaceMesh
 66
     1
 10
0.0
 20
0.0
 30
0.0
 70
    64
 71
     4
 72
     2
  0
VERTEX
  5
190
330
18F
100
AcDbEntity
  8
0
100
AcDbVertex
100
AcDbPolyFaceMeshVertex
 10
163.0478083335293
 20
231.1468361544159
 30
0.0000000000004512
 70
   192
  0
VERTEX
  5
191
330
18F
100
AcDbEntity
  8
0
100
AcDbVertex
100
AcDbPolyFaceMeshVertex
 10
165.2828010377056
 20
230.4072560905517
 30
5.000000000000126
 70
   192
  0
VERTEX
  5
192
330
18F
100
AcDbEntity
  8
0
100
AcDbVertex
100
AcDbPolyFaceMeshVertex
 10
165.3576138277943
 20
229.9304343618947
 30
0.000000000000361
 70
   192
  0
VERTEX
  5
193
330
18F
100
AcDbEntity
  8
0
100
AcDbVertex
100
AcDbPolyFaceMeshVertex
 10
162.9729955434408
 20
231.6236578830732
 30
5.000000000000217
 70
   192
  0
VERTEX
  5
194
330
18F
100
AcDbEntity
  8
0
100
AcDbFaceRecord
 10
0.0
 20
0.0
 30
0.0
 70
   128
 71
    -1
 72
     2
 73
     3
  0
VERTEX
  5
195
330
18F
100
AcDbEntity
  8
0
100
AcDbFaceRecord
 10
0.0
 20
0.0
 30
0.0
 70
   128
 71
    -2
 72
     1
 73
     4
  0
SEQEND
  5
196
330
18F
100
AcDbEntity
  8
0
  0
POLYLINE
  5
197
330
1F
100
AcDbEntity
  8
0
100
AcDbPolyFaceMesh
 66
     1
 10
0.0
 20
0.0
 30
0.0
 70
    64
 71
     4
 72
     2
  0
VERTEX
  5
198
330
197
100
AcDbEntity
  8
0
100
AcDbVertex
100
AcDbPolyFaceMeshVertex
 10
164.6394123043325
 20
248.3940619255398
 30
0.000000000000361
 70
   192
  0
VERTEX
  5
199
330
197
100
AcDbEntity
  8
0
100
AcDbVertex
100
AcDbPolyFaceMeshVertex
 10
162.3562619135792
 20
247.4787343146238
 30
5.000000000000306
 70
   192
  0
VERTEX
  5
19A
330
197
100
AcDbEntity
  8
0
100
AcDbVertex
100
AcDbPolyFaceMeshVertex
 10
162.431074703668
 20
247.0019125859666
 30
0.0000000000002707
 70
   192
  0
VERTEX
  5
19B
330
197
100
AcDbEntity
  8
0
100
AcDbVertex
100
AcDbPolyFaceMeshVertex
 10
164.5645995142446
 20
248.8708836541972
 30
5.000000000000126
 70
   192
  0
VERTEX
  5
19C
330
197
100
AcDbEntity
  8
0
100
AcDbFaceRecord
 10
0.0
 20
0.0
 30
0.0
 70
   128
 71
    -1
 72
     2
 73
     3
  0
VERTEX
  5
19D
330
197
100
AcDbEntity
  8
0
100
AcDbFaceRecord
 10
0.0
 20
0.0
 30
0.0
 70
   128
 71
    -2
 72
     1
 73
     4
  0
SEQEND
  5
19E
330
197
100
AcDbEntity
  8
0
  0
POLYLINE
  5
19F
330
1F
100
AcDbEntity
  8
0
100
AcDbPolyFaceMesh
 66
     1
 10
0.0
 20
0.0
 30
0.0
 70
    64
 71
     4
 72
     2
  0
VERTEX
  5
1A0
330
19F
100
AcDbEntity
  8
0
100
AcDbVertex
100
AcDbPolyFaceMeshVertex
 10
165.2828010377056
 20
230.4072560905517
 30
5.000000000000126
 70
   192
  0
VERTEX
  5
1A1
330
19F
100
AcDbEntity
  8
0
100
AcDbVertex
100
AcDbPolyFaceMeshVertex
 10
167.9035425588105
 20
229.3533021077522
 30
0.0000000000004512
 70
   192
  0
VERTEX
  5
1A2
330
19F
100
AcDbEntity
  8
0
100
AcDbVertex
100
AcDbPolyFaceMeshVertex
 10
165.3576138277943
 20
229.9304343618947
 30
0.000000000000361
 70
   192
  0
VERTEX
  5
1A3
330
19F
100
AcDbEntity
  8
0
100
AcDbVertex
100
AcDbPolyFaceMeshVertex
 10
167.8287297687217
 20
229.8301238364093
 30
5.000000000000036
 70
   192
  0
VERTEX
  5
1A4
330
19F
100
AcDbEntity
  8
0
100
AcDbFaceRecord
 10
0.0
 20
0.0
 30
0.0
 70
   128
 71
    -1
 72
     2
 73
     3
  0
VERTEX
  5
1A5
330
19F
100
AcDbEntity
  8
0
100
AcDbFaceRecord
 10
0.0
 20
0.0
 30
0.0
 70
   128
 71
    -2
 72
     1
 73
     4
  0
SEQEND
  5
1A6
330
19F
100
AcDbEntity
  8
0
  0
POLYLINE
  5
1A7
330
1F
100
AcDbEntity
  8
0
100
AcDbPolyFaceMesh
 66
     1
 10
0.0
 20
0.0
 30
0.0
 70
    64
 71
     4
 72
     2
  0
VERTEX
  5
1A8
330
1A7
100
AcDbEntity
  8
0
100
AcDbVertex
100
AcDbPolyFaceMeshVertex
 10
164.5983601620262
 20
263.9515489198164
 30
0.0000000000005414
 70
   192
  0
VERTEX
  5
1A9
330
1A7
100
AcDbEntity
  8
0
100
AcDbVertex
100
AcDbPolyFaceMeshVertex
 10
174.3797699200702
 20
266.1180087995821
 30
5.000000000000217
 70
   192
  0
VERTEX
  5
1AA
330
1A7
100
AcDbEntity
  8
0
100
AcDbVertex
100
AcDbPolyFaceMeshVertex
 10
169.5264718767171
 20
264.7963680709062
 30
0.0000000000004512
 70
   192
  0
VERTEX
  5
1AB
330
1A7
100
AcDbEntity
  8
0
100
AcDbVertex
100
AcDbPolyFaceMeshVertex
 10
164.5235473719376
 20
264.4283706484737
 30
4.999999999999946
 70
   192
  0
VERTEX
  5
1AC
330
1A7
100
AcDbEntity
  8
0
100
AcDbFaceRecord
 10
0.0
 20
0.0
 30
0.0
 70
   128
 71
    -1
 72
     2
 73
     3
  0
VERTEX
  5
1AD
330
1A7
100
AcDbEntity
  8
0
100
AcDbFaceRecord
 10
0.0
 20
0.0
 30
0.0
 70
   128
 71
    -2
 72
     1
 73
     4
  0
SEQEND
  5
1AE
330
1A7
100
AcDbEntity
  8
0
  0
POLYLINE
  5
1AF
330
1F
100
AcDbEntity
  8
0
100
AcDbPolyFaceMesh
 66
     1
 10
0.0
 20
0.0
 30
0.0
 70
    64
 71
     4
 72
     2
  0
VERTEX
  5
1B0
330
1AF
100
AcDbEntity
  8
0
100
AcDbVertex
100
AcDbPolyFaceMeshVertex
 10
165.3556308810873
 20
208.2790553430235
 30
0.0000000000002707
 70
   192
  0
VERTEX
  5
1B1
330
1AF
100
AcDbEntity
  8
0
100
AcDbVertex
100
AcDbPolyFaceMeshVertex
 10
164.7036858368558
 20
206.2099483406643
 30
5.000000000000306
 70
   192
  0
VERTEX
  5
1B2
330
1AF
100
AcDbEntity
  8
0
100
AcDbVertex
100
AcDbPolyFaceMeshVertex
 10
164.7784986269444
 20
205.7331266120072
 30
0.0000000000002707
 70
   192
  0
VERTEX
  5
1B3
330
1AF
100
AcDbEntity
  8
0
100
AcDbVertex
100
AcDbPolyFaceMeshVertex
 10
165.2808180909981
 20
208.7558770716807
 30
4.999999999999946
 70
   192
  0
VERTEX
  5
1B4
330
1AF
100
AcDbEntity
  8
0
100
AcDbFaceRecord
 10
0.0
 20
0.0
 30
0.0
 70
   128
 71
    -1
 72
     2
 73
     3
  0
VERTEX
  5
1B5
330
1AF
100
AcDbEntity
  8
0
100
AcDbFaceRecord
 10
0.0
 20
0.0
 30
0.0
 70
   128
 71
    -2
 72
     1
 73
     4
  0
SEQEND
  5
1B6
330
1AF
100
AcDbEntity
  8
0
  0
POLYLINE
  5
1B7
330
1F
100
AcDbEntity
  8
0
100
AcDbPolyFaceMesh
 66
     1
 10
0.0
 20
0.0
 30
0.0
 70
    64
 71
     4
 72
     2
  0
VERTEX
  5
1B8
330
1B7
100
AcDbEntity
  8
0
100
AcDbVertex
100
AcDbPolyFaceMeshVertex
 10
164.7784986269444
 20
205.7331266120072
 30
0.0000000000002707
 70
   192
  0
VERTEX
  5
1B9
330
1B7
100
AcDbEntity
  8
0
100
AcDbVertex
100
AcDbPolyFaceMeshVertex
 10
164.8051537304559
 20
203.6013972085693
 30
5.000000000000126
 70
   192
  0
VERTEX
  5
1BA
330
1B7
100
AcDbEntity
  8
0
100
AcDbVertex
100
AcDbPolyFaceMeshVertex
 10
164.8799665205439
 20
203.1245754799117
 30
0.000000000000361
 70
   192
  0
VERTEX
  5
1BB
330
1B7
100
AcDbEntity
  8
0
100
AcDbVertex
100
AcDbPolyFaceMeshVertex
 10
164.7036858368558
 20
206.2099483406643
 30
5.000000000000306
 70
   192
  0
VERTEX
  5
1BC
330
1B7
100
AcDbEntity
  8
0
100
AcDbFaceRecord
 10
0.0
 20
0.0
 30
0.0
 70
   128
 71
    -1
 72
     2
 73
     3
  0
VERTEX
  5
1BD
330
1B7
100
AcDbEntity
  8
0
100
AcDbFaceRecord
 10
0.0
 20
0.0
 30
0.0
 70
   128
 71
    -2
 72
     1
 73
     4
  0
SEQEND
  5
1BE
330
1B7
100
AcDbEntity
  8
0
  0
POLYLINE
  5
1BF
330
1F
100
AcDbEntity
  8
0
100
AcDbPolyFaceMesh
 66
     1
 10
0.0
 20
0.0
 30
0.0
 70
    64
 71
     4
 72
     2
  0
VERTEX
  5
1C0
330
1BF
100
AcDbEntity
  8
0
100
AcDbVertex
100
AcDbPolyFaceMeshVertex
 10
161.1442710697206
 20
284.1408157447389
 30
5.000000000000217
 70
   192
  0
VERTEX
  5
1C1
330
1BF
100
AcDbEntity
  8
0
100
AcDbVertex
100
AcDbPolyFaceMeshVertex
 10
158.725678775453
 20
282.8908408440045
 30
0.0000000000004512
 70
   192
  0
VERTEX
  5
1C2
330
1BF
100
AcDbEntity
  8
0
100
AcDbVertex
100
AcDbPolyFaceMeshVertex
 10
161.2190838598095
 20
283.6639940160817
 30
0.0000000000002707
 70
   192
  0
VERTEX
  5
1C3
330
1BF
100
AcDbEntity
  8
0
100
AcDbVertex
100
AcDbPolyFaceMeshVertex
 10
158.6508659853644
 20
283.3676625726617
 30
4.999999999999946
 70
   192
  0
VERTEX
  5
1C4
330
1BF
100
AcDbEntity
  8
0
100
AcDbFaceRecord
 10
0.0
 20
0.0
 30
0.0
 70
   128
 71
    -1
 72
     2
 73
     3
  0
VERTEX
  5
1C5
330
1BF
100
AcDbEntity
  8
0
100
AcDbFaceRecord
 10
0.0
 20
0.0
 30
0.0
 70
   128
 71
    -2
 72
     1
 73
     4
  0
SEQEND
  5
1C6
330
1BF
100
AcDbEntity
  8
0
  0
POLYLINE
  5
1C7
330
1F
100
AcDbEntity
  8
0
100
AcDbPolyFaceMesh
 66
     1
 10
0.0
 20
0.0
 30
0.0
 70
    64
 71
     4
 72
     2
  0
VERTEX
  5
1C8
330
1C7
100
AcDbEntity
  8
0
100
AcDbVertex
100
AcDbPolyFaceMeshVertex
 10
158.8647650980646
 20
240.2299055304714
 30
0.0000000000004512
 70
   192
  0
VERTEX
  5
1C9
330
1C7
100
AcDbEntity
  8
0
100
AcDbVertex
100
AcDbPolyFaceMeshVertex
 10
158.8914202015761
 20
238.0981761270337
 30
5.000000000000306
 70
   192
  0
VERTEX
  5
1CA
330
1C7
100
AcDbEntity
  8
0
100
AcDbVertex
100
AcDbPolyFaceMeshVertex
 10
158.9662329916646
 20
237.6213543983762
 30
0.0000000000002707
 70
   192
  0
VERTEX
  5
1CB
330
1C7
100
AcDbEntity
  8
0
100
AcDbVertex
100
AcDbPolyFaceMeshVertex
 10
158.7899523079762
 20
240.7067272591289
 30
4.999999999999946
 70
   192
  0
VERTEX
  5
1CC
330
1C7
100
AcDbEntity
  8
0
100
AcDbFaceRecord
 10
0.0
 20
0.0
 30
0.0
 70
   128
 71
    -1
 72
     2
 73
     3
  0
VERTEX
  5
1CD
330
1C7
100
AcDbEntity
  8
0
100
AcDbFaceRecord
 10
0.0
 20
0.0
 30
0.0
 70
   128
 71
    -2
 72
     1
 73
     4
  0
SEQEND
  5
1CE
330
1C7
100
AcDbEntity
  8
0
  0
POLYLINE
  5
1CF
330
1F
100
AcDbEntity
  8
0
100
AcDbPolyFaceMesh
 66
     1
 10
0.0
 20
0.0
 30
0.0
 70
    64
 71
     4
 72
     2
  0
VERTEX
  5
1D0
330
1CF
100
AcDbEntity
  8
0
100
AcDbVertex
100
AcDbPolyFaceMeshVertex
 10
152.9510315691853
 20
274.7266844489359
 30
0.0000000000002707
 70
   192
  0
VERTEX
  5
1D1
330
1CF
100
AcDbEntity
  8
0
100
AcDbVertex
100
AcDbPolyFaceMeshVertex
 10
152.9776866726967
 20
272.5949550454978
 30
5.000000000000036
 70
   192
  0
VERTEX
  5
1D2
330
1CF
100
AcDbEntity
  8
0
100
AcDbVertex
100
AcDbPolyFaceMeshVertex
 10
153.0524994627849
 20
272.1181333168407
 30
0.000000000000361
 70
   192
  0
VERTEX
  5
1D3
330
1CF
100
AcDbEntity
  8
0
100
AcDbVertex
100
AcDbPolyFaceMeshVertex
 10
152.8762187790965
 20
275.2035061775931
 30
4.999999999999946
 70
   192
  0
VERTEX
  5
1D4
330
1CF
100
AcDbEntity
  8
0
100
AcDbFaceRecord
 10
0.0
 20
0.0
 30
0.0
 70
   128
 71
    -1
 72
     2
 73
     3
  0
VERTEX
  5
1D5
330
1CF
100
AcDbEntity
  8
0
100
AcDbFaceRecord
 10
0.0
 20
0.0
 30
0.0
 70
   128
 71
    -2
 72
     1
 73
     4
  0
SEQEND
  5
1D6
330
1CF
100
AcDbEntity
  8
0
  0
POLYLINE
  5
1D7
330
1F
100
AcDbEntity
  8
0
100
AcDbPolyFaceMesh
 66
     1
 10
0.0
 20
0.0
 30
0.0
 70
    64
 71
     4
 72
     2
  0
VERTEX
  5
1D8
330
1D7
100
AcDbEntity
  8
0
100
AcDbVertex
100
AcDbPolyFaceMeshVertex
 10
157.059262014561
 20
266.1204368015376
 30
5.000000000000036
 70
   192
  0
VERTEX
  5
1D9
330
1D7
100
AcDbEntity
  8
0
100
AcDbVertex
100
AcDbPolyFaceMeshVertex
 10
159.4438802989146
 20
264.427213280359
 30
0.0000000000002707
 70
   192
  0
VERTEX
  5
1DA
330
1D7
100
AcDbEntity
  8
0
100
AcDbVertex
100
AcDbPolyFaceMeshVertex
 10
157.13407480465
 20
265.6436150728804
 30
0.0000000000002707
 70
   192
  0
VERTEX
  5
1DB
330
1D7
100
AcDbEntity
  8
0
100
AcDbVertex
100
AcDbPolyFaceMeshVertex
 10
159.3690675088261
 20
264.9040350090162
 30
5.000000000000126
 70
   192
  0
VERTEX
  5
1DC
330
1D7
100
AcDbEntity
  8
0
100
AcDbFaceRecord
 10
0.0
 20
0.0
 30
0.0
 70
   128
 71
    -1
 72
     2
 73
     3
  0
VERTEX
  5
1DD
330
1D7
100
AcDbEntity
  8
0
100
AcDbFaceRecord
 10
0.0
 20
0.0
 30
0.0
 70
   128
 71
    -2
 72
     1
 73
     4
  0
SEQEND
  5
1DE
330
1D7
100
AcDbEntity
  8
0
  0
POLYLINE
  5
1DF
330
1F
100
AcDbEntity
  8
0
100
AcDbPolyFaceMesh
 66
     1
 10
0.0
 20
0.0
 30
0.0
 70
    64
 71
     4
 72
     2
  0
VERTEX
  5
1E0
330
1DF
100
AcDbEntity
  8
0
100
AcDbVertex
100
AcDbPolyFaceMeshVertex
 10
172.9717381274796
 20
215.1472579078103
 30
5.000000000000217
 70
   192
  0
VERTEX
  5
1E1
330
1DF
100
AcDbEntity
  8
0
100
AcDbVertex
100
AcDbPolyFaceMeshVertex
 10
170.5531458332123
 20
213.8972830070756
 30
0.0000000000002707
 70
   192
  0
VERTEX
  5
1E2
330
1DF
100
AcDbEntity
  8
0
100
AcDbVertex
100
AcDbPolyFaceMeshVertex
 10
173.0465509175689
 20
214.6704361791529
 30
0.0000000000002707
 70
   192
  0
VERTEX
  5
1E3
330
1DF
100
AcDbEntity
  8
0
100
AcDbVertex
100
AcDbPolyFaceMeshVertex
 10
170.4783330431236
 20
214.3741047357327
 30
5.000000000000397
 70
   192
  0
VERTEX
  5
1E4
330
1DF
100
AcDbEntity
  8
0
100
AcDbFaceRecord
 10
0.0
 20
0.0
 30
0.0
 70
   128
 71
    -1
 72
     2
 73
     3
  0
VERTEX
  5
1E5
330
1DF
100
AcDbEntity
  8
0
100
AcDbFaceRecord
 10
0.0
 20
0.0
 30
0.0
 70
   128
 71
    -2
 72
     1
 73
     4
  0
SEQEND
  5
1E6
330
1DF
100
AcDbEntity
  8
0
  0
POLYLINE
  5
1E7
330
1F
100
AcDbEntity
  8
0
100
AcDbPolyFaceMesh
 66
     1
 10
0.0
 20
0.0
 30
0.0
 70
    64
 71
     4
 72
     2
  0
VERTEX
  5
1E8
330
1E7
100
AcDbEntity
  8
0
100
AcDbVertex
100
AcDbPolyFaceMeshVertex
 10
159.3690675088261
 20
264.9040350090162
 30
5.000000000000126
 70
   192
  0
VERTEX
  5
1E9
330
1E7
100
AcDbEntity
  8
0
100
AcDbVertex
100
AcDbPolyFaceMeshVertex
 10
161.9898090299309
 20
263.8500810262166
 30
0.0000000000002707
 70
   192
  0
VERTEX
  5
1EA
330
1E7
100
AcDbEntity
  8
0
100
AcDbVertex
100
AcDbPolyFaceMeshVertex
 10
159.4438802989146
 20
264.427213280359
 30
0.0000000000002707
 70
   192
  0
VERTEX
  5
1EB
330
1E7
100
AcDbEntity
  8
0
100
AcDbVertex
100
AcDbPolyFaceMeshVertex
 10
161.9149962398424
 20
264.3269027548737
 30
5.000000000000217
 70
   192
  0
VERTEX
  5
1EC
330
1E7
100
AcDbEntity
  8
0
100
AcDbFaceRecord
 10
0.0
 20
0.0
 30
0.0
 70
   128
 71
    -1
 72
     2
 73
     3
  0
VERTEX
  5
1ED
330
1E7
100
AcDbEntity
  8
0
100
AcDbFaceRecord
 10
0.0
 20
0.0
 30
0.0
 70
   128
 71
    -2
 72
     1
 73
     4
  0
SEQEND
  5
1EE
330
1E7
100
AcDbEntity
  8
0
  0
POLYLINE
  5
1EF
330
1F
100
AcDbEntity
  8
0
100
AcDbPolyFaceMesh
 66
     1
 10
0.0
 20
0.0
 30
0.0
 70
    64
 71
     4
 72
     2
  0
VERTEX
  5
1F0
330
1EF
100
AcDbEntity
  8
0
100
AcDbVertex
100
AcDbPolyFaceMeshVertex
 10
166.9704562421062
 20
198.8996545235478
 30
5.000000000000306
 70
   192
  0
VERTEX
  5
1F1
330
1EF
100
AcDbEntity
  8
0
100
AcDbVertex
100
AcDbPolyFaceMeshVertex
 10
168.9615418624092
 20
196.6500572359517
 30
0.000000000000361
 70
   192
  0
VERTEX
  5
1F2
330
1EF
100
AcDbEntity
  8
0
100
AcDbVertex
100
AcDbPolyFaceMeshVertex
 10
167.0452690321954
 20
198.4228327948905
 30
0.0000000000002707
 70
   192
  0
VERTEX
  5
1F3
330
1EF
100
AcDbEntity
  8
0
100
AcDbVertex
100
AcDbPolyFaceMeshVertex
 10
168.8867290723199
 20
197.1268789646088
 30
5.000000000000036
 70
   192
  0
VERTEX
  5
1F4
330
1EF
100
AcDbEntity
  8
0
100
AcDbFaceRecord
 10
0.0
 20
0.0
 30
0.0
 70
   128
 71
    -1
 72
     2
 73
     3
  0
VERTEX
  5
1F5
330
1EF
100
AcDbEntity
  8
0
100
AcDbFaceRecord
 10
0.0
 20
0.0
 30
0.0
 70
   128
 71
    -2
 72
     1
 73
     4
  0
SEQEND
  5
1F6
330
1EF
100
AcDbEntity
  8
0
  0
POLYLINE
  5
1F7
330
1F
100
AcDbEntity
  8
0
100
AcDbPolyFaceMesh
 66
     1
 10
0.0
 20
0.0
 30
0.0
 70
    64
 71
     4
 72
     2
  0
VERTEX
  5
1F8
330
1F7
100
AcDbEntity
  8
0
100
AcDbVertex
100
AcDbPolyFaceMeshVertex
 10
153.5301467700351
 20
298.9239921988233
 30
0.000000000000361
 70
   192
  0
VERTEX
  5
1F9
330
1F7
100
AcDbEntity
  8
0
100
AcDbVertex
100
AcDbPolyFaceMeshVertex
 10
156.0012627109626
 20
298.8236816733381
 30
5.000000000000036
 70
   192
  0
VERTEX
  5
1FA
330
1F7
100
AcDbEntity
  8
0
100
AcDbVertex
100
AcDbPolyFaceMeshVertex
 10
156.0760755010516
 20
298.3468599446808
 30
0.0000000000002707
 70
   192
  0
VERTEX
  5
1FB
330
1F7
100
AcDbEntity
  8
0
100
AcDbVertex
100
AcDbPolyFaceMeshVertex
 10
153.4553339799464
 20
299.4008139274807
 30
5.000000000000126
 70
   192
  0
VERTEX
  5
1FC
330
1F7
100
AcDbEntity
  8
0
100
AcDbFaceRecord
 10
0.0
 20
0.0
 30
0.0
 70
   128
 71
    -1
 72
     2
 73
     3
  0
VERTEX
  5
1FD
330
1F7
100
AcDbEntity
  8
0
100
AcDbFaceRecord
 10
0.0
 20
0.0
 30
0.0
 70
   128
 71
    -2
 72
     1
 73
     4
  0
SEQEND
  5
1FE
330
1F7
100
AcDbEntity
  8
0
  0
POLYLINE
  5
1FF
330
1F
100
AcDbEntity
  8
0
100
AcDbPolyFaceMesh
 66
     1
 10
0.0
 20
0.0
 30
0.0
 70
    64
 71
     4
 72
     2
  0
VERTEX
  5
200
330
1FF
100
AcDbEntity
  8
0
100
AcDbVertex
100
AcDbPolyFaceMeshVertex
 10
167.0580045986
 20
249.6440368262747
 30
5.000000000000036
 70
   192
  0
VERTEX
  5
201
330
1FF
100
AcDbEntity
  8
0
100
AcDbVertex
100
AcDbPolyFaceMeshVertex
 10
164.6394123043325
 20
248.3940619255398
 30
0.000000000000361
 70
   192
  0
VERTEX
  5
202
330
1FF
100
AcDbEntity
  8
0
100
AcDbVertex
100
AcDbPolyFaceMeshVertex
 10
167.1328173886891
 20
249.1672150976173
 30
0.0000000000002707
 70
   192
  0
VERTEX
  5
203
330
1FF
100
AcDbEntity
  8
0
100
AcDbVertex
100
AcDbPolyFaceMeshVertex
 10
164.5645995142446
 20
248.8708836541972
 30
5.000000000000126
 70
   192
  0
VERTEX
  5
204
330
1FF
100
AcDbEntity
  8
0
100
AcDbFaceRecord
 10
0.0
 20
0.0
 30
0.0
 70
   128
 71
    -1
 72
     2
 73
     3
  0
VERTEX
  5
205
330
1FF
100
AcDbEntity
  8
0
100
AcDbFaceRecord
 10
0.0
 20
0.0
 30
0.0
 70
   128
 71
    -2
 72
     1
 73
     4
  0
SEQEND
  5
206
330
1FF
100
AcDbEntity
  8
0
  0
POLYLINE
  5
207
330
1F
100
AcDbEntity
  8
0
100
AcDbPolyFaceMesh
 66
     1
 10
0.0
 20
0.0
 30
0.0
 70
    64
 71
     4
 72
     2
  0
VERTEX
  5
208
330
207
100
AcDbEntity
  8
0
100
AcDbVertex
100
AcDbPolyFaceMeshVertex
 10
151.1455284856816
 20
300.6172157200018
 30
5.000000000000217
 70
   192
  0
VERTEX
  5
209
330
207
100
AcDbEntity
  8
0
100
AcDbVertex
100
AcDbPolyFaceMeshVertex
 10
153.5301467700351
 20
298.9239921988233
 30
0.000000000000361
 70
   192
  0
VERTEX
  5
20A
330
207
100
AcDbEntity
  8
0
100
AcDbVertex
100
AcDbPolyFaceMeshVertex
 10
151.2203412757695
 20
300.1403939913446
 30
0.0000000000002707
 70
   192
  0
VERTEX
  5
20B
330
207
100
AcDbEntity
  8
0
100
AcDbVertex
100
AcDbPolyFaceMeshVertex
 10
153.4553339799464
 20
299.4008139274807
 30
5.000000000000126
 70
   192
  0
VERTEX
  5
20C
330
207
100
AcDbEntity
  8
0
100
AcDbFaceRecord
 10
0.0
 20
0.0
 30
0.0
 70
   128
 71
    -1
 72
     2
 73
     3
  0
VERTEX
  5
20D
330
207
100
AcDbEntity
  8
0
100
AcDbFaceRecord
 10
0.0
 20
0.0
 30
0.0
 70
   128
 71
    -2
 72
     1
 73
     4
  0
SEQEND
  5
20E
330
207
100
AcDbEntity
  8
0
  0
POLYLINE
  5
20F
330
1F
100
AcDbEntity
  8
0
100
AcDbPolyFaceMesh
 66
     1
 10
0.0
 20
0.0
 30
0.0
 70
    64
 71
     4
 72
     2
  0
VERTEX
  5
210
330
20F
100
AcDbEntity
  8
0
100
AcDbVertex
100
AcDbPolyFaceMeshVertex
 10
154.7445656158493
 20
279.5824186742172
 30
0.000000000000361
 70
   192
  0
VERTEX
  5
211
330
20F
100
AcDbEntity
  8
0
100
AcDbVertex
100
AcDbPolyFaceMeshVertex
 10
153.4533510332389
 20
277.7494349086094
 30
4.999999999999946
 70
   192
  0
VERTEX
  5
212
330
20F
100
AcDbEntity
  8
0
100
AcDbVertex
100
AcDbPolyFaceMeshVertex
 10
153.5281638233278
 20
277.2726131799522
 30
0.0000000000004512
 70
   192
  0
VERTEX
  5
213
330
20F
100
AcDbEntity
  8
0
100
AcDbVertex
100
AcDbPolyFaceMeshVertex
 10
154.6697528257603
 20
280.0592404028743
 30
5.000000000000126
 70
   192
  0
VERTEX
  5
214
330
20F
100
AcDbEntity
  8
0
100
AcDbFaceRecord
 10
0.0
 20
0.0
 30
0.0
 70
   128
 71
    -1
 72
     2
 73
     3
  0
VERTEX
  5
215
330
20F
100
AcDbEntity
  8
0
100
AcDbFaceRecord
 10
0.0
 20
0.0
 30
0.0
 70
   128
 71
    -2
 72
     1
 73
     4
  0
SEQEND
  5
216
330
20F
100
AcDbEntity
  8
0
  0
POLYLINE
  5
217
330
1F
100
AcDbEntity
  8
0
100
AcDbPolyFaceMesh
 66
     1
 10
0.0
 20
0.0
 30
0.0
 70
    64
 71
     4
 72
     2
  0
VERTEX
  5
218
330
217
100
AcDbEntity
  8
0
100
AcDbVertex
100
AcDbPolyFaceMeshVertex
 10
168.8867290723199
 20
197.1268789646088
 30
5.000000000000036
 70
   192
  0
VERTEX
  5
219
330
217
100
AcDbEntity
  8
0
100
AcDbVertex
100
AcDbPolyFaceMeshVertex
 10
171.2713473566738
 20
195.4336554434302
 30
0.0000000000004512
 70
   192
  0
VERTEX
  5
21A
330
217
100
AcDbEntity
  8
0
100
AcDbVertex
100
AcDbPolyFaceMeshVertex
 10
168.9615418624092
 20
196.6500572359517
 30
0.000000000000361
 70
   192
  0
VERTEX
  5
21B
330
217
100
AcDbEntity
  8
0
100
AcDbVertex
100
AcDbPolyFaceMeshVertex
 10
171.1965345665854
 20
195.9104771720876
 30
5.000000000000036
 70
   192
  0
VERTEX
  5
21C
330
217
100
AcDbEntity
  8
0
100
AcDbFaceRecord
 10
0.0
 20
0.0
 30
0.0
 70
   128
 71
    -1
 72
     2
 73
     3
  0
VERTEX
  5
21D
330
217
100
AcDbEntity
  8
0
100
AcDbFaceRecord
 10
0.0
 20
0.0
 30
0.0
 70
   128
 71
    -2
 72
     1
 73
     4
  0
SEQEND
  5
21E
330
217
100
AcDbEntity
  8
0
  0
POLYLINE
  5
21F
330
1F
100
AcDbEntity
  8
0
100
AcDbPolyFaceMesh
 66
     1
 10
0.0
 20
0.0
 30
0.0
 70
    64
 71
     4
 72
     2
  0
VERTEX
  5
220
330
21F
100
AcDbEntity
  8
0
100
AcDbVertex
100
AcDbPolyFaceMeshVertex
 10
171.1965345665854
 20
195.9104771720876
 30
5.000000000000036
 70
   192
  0
VERTEX
  5
221
330
21F
100
AcDbEntity
  8
0
100
AcDbVertex
100
AcDbPolyFaceMeshVertex
 10
173.8172760876905
 20
194.8565231892877
 30
0.0000000000004512
 70
   192
  0
VERTEX
  5
222
330
21F
100
AcDbEntity
  8
0
100
AcDbVertex
100
AcDbPolyFaceMeshVertex
 10
171.2713473566738
 20
195.4336554434302
 30
0.0000000000004512
 70
   192
  0
VERTEX
  5
223
330
21F
100
AcDbEntity
  8
0
100
AcDbVertex
100
AcDbPolyFaceMeshVertex
 10
173.7424632976018
 20
195.3333449179449
 30
5.000000000000036
 70
   192
  0
VERTEX
  5
224
330
21F
100
AcDbEntity
  8
0
100
AcDbFaceRecord
 10
0.0
 20
0.0
 30
0.0
 70
   128
 71
    -1
 72
     2
 73
     3
  0
VERTEX
  5
225
330
21F
100
AcDbEntity
  8
0
100
AcDbFaceRecord
 10
0.0
 20
0.0
 30
0.0
 70
   128
 71
    -2
 72
     1
 73
     4
  0
SEQEND
  5
226
330
21F
100
AcDbEntity
  8
0
  0
POLYLINE
  5
227
330
1F
100
AcDbEntity
  8
0
100
AcDbPolyFaceMesh
 66
     1
 10
0.0
 20
0.0
 30
0.0
 70
    64
 71
     4
 72
     2
  0
VERTEX
  5
228
330
227
100
AcDbEntity
  8
0
100
AcDbVertex
100
AcDbPolyFaceMeshVertex
 10
156.0012627109626
 20
298.8236816733381
 30
5.000000000000036
 70
   192
  0
VERTEX
  5
229
330
227
100
AcDbEntity
  8
0
100
AcDbVertex
100
AcDbPolyFaceMeshVertex
 10
158.6846266331466
 20
298.4483278382808
 30
0.0000000000002707
 70
   192
  0
VERTEX
  5
22A
330
227
100
AcDbEntity
  8
0
100
AcDbVertex
100
AcDbPolyFaceMeshVertex
 10
156.0760755010516
 20
298.3468599446808
 30
0.0000000000002707
 70
   192
  0
VERTEX
  5
22B
330
227
100
AcDbEntity
  8
0
100
AcDbVertex
100
AcDbPolyFaceMeshVertex
 10
158.6098138430577
 20
298.9251495669383
 30
5.000000000000126
 70
   192
  0
VERTEX
  5
22C
330
227
100
AcDbEntity
  8
0
100
AcDbFaceRecord
 10
0.0
 20
0.0
 30
0.0
 70
   128
 71
    -1
 72
     2
 73
     3
  0
VERTEX
  5
22D
330
227
100
AcDbEntity
  8
0
100
AcDbFaceRecord
 10
0.0
 20
0.0
 30
0.0
 70
   128
 71
    -2
 72
     1
 73
     4
  0
SEQEND
  5
22E
330
227
100
AcDbEntity
  8
0
  0
POLYLINE
  5
22F
330
1F
100
AcDbEntity
  8
0
100
AcDbPolyFaceMesh
 66
     1
 10
0.0
 20
0.0
 30
0.0
 70
    64
 71
     4
 72
     2
  0
VERTEX
  5
230
330
22F
100
AcDbEntity
  8
0
100
AcDbVertex
100
AcDbPolyFaceMeshVertex
 10
147.9119191059831
 20
304.1215071509488
 30
0.0000000000000902
 70
   192
  0
VERTEX
  5
231
330
22F
100
AcDbEntity
  8
0
100
AcDbVertex
100
AcDbPolyFaceMeshVertex
 10
149.2292556554679
 20
302.3899912789408
 30
5.000000000000217
 70
   192
  0
VERTEX
  5
232
330
22F
100
AcDbEntity
  8
0
100
AcDbVertex
100
AcDbPolyFaceMeshVertex
 10
149.3040684455567
 20
301.9131695502837
 30
0.0000000000002707
 70
   192
  0
VERTEX
  5
233
330
22F
100
AcDbEntity
  8
0
100
AcDbVertex
100
AcDbPolyFaceMeshVertex
 10
147.8371063158939
 20
304.5983288796062
 30
5.000000000000217
 70
   192
  0
VERTEX
  5
234
330
22F
100
AcDbEntity
  8
0
100
AcDbFaceRecord
 10
0.0
 20
0.0
 30
0.0
 70
   128
 71
    -1
 72
     2
 73
     3
  0
VERTEX
  5
235
330
22F
100
AcDbEntity
  8
0
100
AcDbFaceRecord
 10
0.0
 20
0.0
 30
0.0
 70
   128
 71
    -2
 72
     1
 73
     4
  0
SEQEND
  5
236
330
22F
100
AcDbEntity
  8
0
  0
POLYLINE
  5
237
330
1F
100
AcDbEntity
  8
0
100
AcDbPolyFaceMesh
 66
     1
 10
0.0
 20
0.0
 30
0.0
 70
    64
 71
     4
 72
     2
  0
VERTEX
  5
238
330
237
100
AcDbEntity
  8
0
100
AcDbVertex
100
AcDbPolyFaceMeshVertex
 10
170.4783330431236
 20
214.3741047357327
 30
5.000000000000397
 70
   192
  0
VERTEX
  5
239
330
237
100
AcDbEntity
  8
0
100
AcDbVertex
100
AcDbPolyFaceMeshVertex
 10
168.3448082325476
 20
212.5051336675023
 30
0.000000000000361
 70
   192
  0
VERTEX
  5
23A
330
237
100
AcDbEntity
  8
0
100
AcDbVertex
100
AcDbPolyFaceMeshVertex
 10
170.5531458332123
 20
213.8972830070756
 30
0.0000000000002707
 70
   192
  0
VERTEX
  5
23B
330
237
100
AcDbEntity
  8
0
100
AcDbVertex
100
AcDbPolyFaceMeshVertex
 10
168.2699954424588
 20
212.9819553961594
 30
5.000000000000306
 70
   192
  0
VERTEX
  5
23C
330
237
100
AcDbEntity
  8
0
100
AcDbFaceRecord
 10
0.0
 20
0.0
 30
0.0
 70
   128
 71
    -1
 72
     2
 73
     3
  0
VERTEX
  5
23D
330
237
100
AcDbEntity
  8
0
100
AcDbFaceRecord
 10
0.0
 20
0.0
 30
0.0
 70
   128
 71
    -2
 72
     1
 73
     4
  0
SEQEND
  5
23E
330
237
100
AcDbEntity
  8
0
  0
POLYLINE
  5
23F
330
1F
100
AcDbEntity
  8
0
100
AcDbPolyFaceMesh
 66
     1
 10
0.0
 20
0.0
 30
0.0
 70
    64
 71
     4
 72
     2
  0
VERTEX
  5
240
330
23F
100
AcDbEntity
  8
0
100
AcDbVertex
100
AcDbPolyFaceMeshVertex
 10
166.5720326736086
 20
210.5888608372885
 30
0.000000000000361
 70
   192
  0
VERTEX
  5
241
330
23F
100
AcDbEntity
  8
0
100
AcDbVertex
100
AcDbPolyFaceMeshVertex
 10
165.2808180909981
 20
208.7558770716807
 30
4.999999999999946
 70
   192
  0
VERTEX
  5
242
330
23F
100
AcDbEntity
  8
0
100
AcDbVertex
100
AcDbPolyFaceMeshVertex
 10
165.3556308810873
 20
208.2790553430235
 30
0.0000000000002707
 70
   192
  0
VERTEX
  5
243
330
23F
100
AcDbEntity
  8
0
100
AcDbVertex
100
AcDbPolyFaceMeshVertex
 10
166.4972198835196
 20
211.0656825659459
 30
5.000000000000036
 70
   192
  0
VERTEX
  5
244
330
23F
100
AcDbEntity
  8
0
100
AcDbFaceRecord
 10
0.0
 20
0.0
 30
0.0
 70
   128
 71
    -1
 72
     2
 73
     3
  0
VERTEX
  5
245
330
23F
100
AcDbEntity
  8
0
100
AcDbFaceRecord
 10
0.0
 20
0.0
 30
0.0
 70
   128
 71
    -2
 72
     1
 73
     4
  0
SEQEND
  5
246
330
23F
100
AcDbEntity
  8
0
  0
POLYLINE
  5
247
330
1F
100
AcDbEntity
  8
0
100
AcDbPolyFaceMesh
 66
     1
 10
0.0
 20
0.0
 30
0.0
 70
    64
 71
     4
 72
     2
  0
VERTEX
  5
248
330
247
100
AcDbEntity
  8
0
100
AcDbVertex
100
AcDbPolyFaceMeshVertex
 10
174.8004626011997
 20
162.6301000461447
 30
4.999999999999946
 70
   192
  0
VERTEX
  5
249
330
247
100
AcDbEntity
  8
0
100
AcDbVertex
100
AcDbPolyFaceMeshVertex
 10
177.1850808855541
 20
160.9368765249658
 30
0.000000000000361
 70
   192
  0
VERTEX
  5
24A
330
247
100
AcDbEntity
  8
0
100
AcDbVertex
100
AcDbPolyFaceMeshVertex
 10
174.8752753912889
 20
162.1532783174873
 30
0.000000000000361
 70
   192
  0
VERTEX
  5
24B
330
247
100
AcDbEntity
  8
0
100
AcDbVertex
100
AcDbPolyFaceMeshVertex
 10
177.1102680954645
 20
161.4136982536229
 30
5.000000000000217
 70
   192
  0
VERTEX
  5
24C
330
247
100
AcDbEntity
  8
0
100
AcDbFaceRecord
 10
0.0
 20
0.0
 30
0.0
 70
   128
 71
    -1
 72
     2
 73
     3
  0
VERTEX
  5
24D
330
247
100
AcDbEntity
  8
0
100
AcDbFaceRecord
 10
0.0
 20
0.0
 30
0.0
 70
   128
 71
    -2
 72
     1
 73
     4
  0
SEQEND
  5
24E
330
247
100
AcDbEntity
  8
0
  0
POLYLINE
  5
24F
330
1F
100
AcDbEntity
  8
0
100
AcDbPolyFaceMesh
 66
     1
 10
0.0
 20
0.0
 30
0.0
 70
    64
 71
     4
 72
     2
  0
VERTEX
  5
250
330
24F
100
AcDbEntity
  8
0
100
AcDbVertex
100
AcDbPolyFaceMeshVertex
 10
182.2647479585769
 20
160.9380338930806
 30
5.000000000000306
 70
   192
  0
VERTEX
  5
251
330
24F
100
AcDbEntity
  8
0
100
AcDbVertex
100
AcDbPolyFaceMeshVertex
 10
187.2676724633565
 20
161.3060313155133
 30
0.000000000000361
 70
   192
  0
VERTEX
  5
252
330
24F
100
AcDbEntity
  8
0
100
AcDbVertex
100
AcDbPolyFaceMeshVertex
 10
182.3395607486653
 20
160.4612121644233
 30
0.000000000000361
 70
   192
  0
VERTEX
  5
253
330
24F
100
AcDbEntity
  8
0
100
AcDbVertex
100
AcDbPolyFaceMeshVertex
 10
192.1209705067092
 20
162.6276720441891
 30
5.000000000000217
 70
   192
  0
VERTEX
  5
254
330
24F
100
AcDbEntity
  8
0
100
AcDbFaceRecord
 10
0.0
 20
0.0
 30
0.0
 70
   128
 71
    -1
 72
     2
 73
     3
  0
VERTEX
  5
255
330
24F
100
AcDbEntity
  8
0
100
AcDbFaceRecord
 10
0.0
 20
0.0
 30
0.0
 70
   128
 71
    -2
 72
     1
 73
     4
  0
SEQEND
  5
256
330
24F
100
AcDbEntity
  8
0
  0
POLYLINE
  5
257
330
1F
100
AcDbEntity
  8
0
100
AcDbPolyFaceMesh
 66
     1
 10
0.0
 20
0.0
 30
0.0
 70
    64
 71
     4
 72
     2
  0
VERTEX
  5
258
330
257
100
AcDbEntity
  8
0
100
AcDbVertex
100
AcDbPolyFaceMeshVertex
 10
177.4805867503812
 20
131.6376125586268
 30
0.0000000000002707
 70
   192
  0
VERTEX
  5
259
330
257
100
AcDbEntity
  8
0
100
AcDbVertex
100
AcDbPolyFaceMeshVertex
 10
178.7979232998653
 20
129.9060966866193
 30
5.000000000000126
 70
   192
  0
VERTEX
  5
25A
330
257
100
AcDbEntity
  8
0
100
AcDbVertex
100
AcDbPolyFaceMeshVertex
 10
178.872736089955
 20
129.4292749579619
 30
0.000000000000361
 70
   192
  0
VERTEX
  5
25B
330
257
100
AcDbEntity
  8
0
100
AcDbVertex
100
AcDbPolyFaceMeshVertex
 10
177.405773960292
 20
132.1144342872844
 30
5.000000000000126
 70
   192
  0
VERTEX
  5
25C
330
257
100
AcDbEntity
  8
0
100
AcDbFaceRecord
 10
0.0
 20
0.0
 30
0.0
 70
   128
 71
    -1
 72
     2
 73
     3
  0
VERTEX
  5
25D
330
257
100
AcDbEntity
  8
0
100
AcDbFaceRecord
 10
0.0
 20
0.0
 30
0.0
 70
   128
 71
    -2
 72
     1
 73
     4
  0
SEQEND
  5
25E
330
257
100
AcDbEntity
  8
0
  0
POLYLINE
  5
25F
330
1F
100
AcDbEntity
  8
0
100
AcDbPolyFaceMesh
 66
     1
 10
0.0
 20
0.0
 30
0.0
 70
    64
 71
     4
 72
     2
  0
VERTEX
  5
260
330
25F
100
AcDbEntity
  8
0
100
AcDbVertex
100
AcDbPolyFaceMeshVertex
 10
158.6098138430577
 20
298.9251495669383
 30
5.000000000000126
 70
   192
  0
VERTEX
  5
261
330
25F
100
AcDbEntity
  8
0
100
AcDbVertex
100
AcDbPolyFaceMeshVertex
 10
163.6127383478371
 20
299.2931469893705
 30
0.0000000000002707
 70
   192
  0
VERTEX
  5
262
330
25F
100
AcDbEntity
  8
0
100
AcDbVertex
100
AcDbPolyFaceMeshVertex
 10
158.6846266331466
 20
298.4483278382808
 30
0.0000000000002707
 70
   192
  0
VERTEX
  5
263
330
25F
100
AcDbEntity
  8
0
100
AcDbVertex
100
AcDbPolyFaceMeshVertex
 10
168.4660363911906
 20
300.6147877180464
 30
5.000000000000126
 70
   192
  0
VERTEX
  5
264
330
25F
100
AcDbEntity
  8
0
100
AcDbFaceRecord
 10
0.0
 20
0.0
 30
0.0
 70
   128
 71
    -1
 72
     2
 73
     3
  0
VERTEX
  5
265
330
25F
100
AcDbEntity
  8
0
100
AcDbFaceRecord
 10
0.0
 20
0.0
 30
0.0
 70
   128
 71
    -2
 72
     1
 73
     4
  0
SEQEND
  5
266
330
25F
100
AcDbEntity
  8
0
  0
POLYLINE
  5
267
330
1F
100
AcDbEntity
  8
0
100
AcDbPolyFaceMesh
 66
     1
 10
0.0
 20
0.0
 30
0.0
 70
    64
 71
     4
 72
     2
  0
VERTEX
  5
268
330
267
100
AcDbEntity
  8
0
100
AcDbVertex
100
AcDbPolyFaceMeshVertex
 10
184.3132332602475
 20
107.0985240818954
 30
0.000000000000361
 70
   192
  0
VERTEX
  5
269
330
267
100
AcDbEntity
  8
0
100
AcDbVertex
100
AcDbPolyFaceMeshVertex
 10
183.0220186776373
 20
105.2655403162875
 30
5.000000000000306
 70
   192
  0
VERTEX
  5
26A
330
267
100
AcDbEntity
  8
0
100
AcDbVertex
100
AcDbPolyFaceMeshVertex
 10
183.096831467726
 20
104.7887185876303
 30
0.000000000000361
 70
   192
  0
VERTEX
  5
26B
330
267
100
AcDbEntity
  8
0
100
AcDbVertex
100
AcDbPolyFaceMeshVertex
 10
184.238420470159
 20
107.5753458105526
 30
5.000000000000306
 70
   192
  0
VERTEX
  5
26C
330
267
100
AcDbEntity
  8
0
100
AcDbFaceRecord
 10
0.0
 20
0.0
 30
0.0
 70
   128
 71
    -1
 72
     2
 73
     3
  0
VERTEX
  5
26D
330
267
100
AcDbEntity
  8
0
100
AcDbFaceRecord
 10
0.0
 20
0.0
 30
0.0
 70
   128
 71
    -2
 72
     1
 73
     4
  0
SEQEND
  5
26E
330
267
100
AcDbEntity
  8
0
  0
POLYLINE
  5
26F
330
1F
100
AcDbEntity
  8
0
100
AcDbPolyFaceMesh
 66
     1
 10
0.0
 20
0.0
 30
0.0
 70
    64
 71
     4
 72
     2
  0
VERTEX
  5
270
330
26F
100
AcDbEntity
  8
0
100
AcDbVertex
100
AcDbPolyFaceMeshVertex
 10
180.7141961300796
 20
128.1333211276803
 30
5.000000000000397
 70
   192
  0
VERTEX
  5
271
330
26F
100
AcDbEntity
  8
0
100
AcDbVertex
100
AcDbPolyFaceMeshVertex
 10
183.0988144144333
 20
126.4400976065017
 30
0.000000000000361
 70
   192
  0
VERTEX
  5
272
330
26F
100
AcDbEntity
  8
0
100
AcDbVertex
100
AcDbPolyFaceMeshVertex
 10
180.7890089201692
 20
127.6564993990228
 30
0.0000000000002707
 70
   192
  0
VERTEX
  5
273
330
26F
100
AcDbEntity
  8
0
100
AcDbVertex
100
AcDbPolyFaceMeshVertex
 10
183.0240016243451
 20
126.9169193351587
 30
5.000000000000487
 70
   192
  0
VERTEX
  5
274
330
26F
100
AcDbEntity
  8
0
100
AcDbFaceRecord
 10
0.0
 20
0.0
 30
0.0
 70
   128
 71
    -1
 72
     2
 73
     3
  0
VERTEX
  5
275
330
26F
100
AcDbEntity
  8
0
100
AcDbFaceRecord
 10
0.0
 20
0.0
 30
0.0
 70
   128
 71
    -2
 72
     1
 73
     4
  0
SEQEND
  5
276
330
26F
100
AcDbEntity
  8
0
  0
POLYLINE
  5
277
330
1F
100
AcDbEntity
  8
0
100
AcDbPolyFaceMesh
 66
     1
 10
0.0
 20
0.0
 30
0.0
 70
    64
 71
     4
 72
     2
  0
VERTEX
  5
278
330
277
100
AcDbEntity
  8
0
100
AcDbVertex
100
AcDbPolyFaceMeshVertex
 10
182.5196992135834
 20
102.242789856614
 30
0.0000000000001805
 70
   192
  0
VERTEX
  5
279
330
277
100
AcDbEntity
  8
0
100
AcDbVertex
100
AcDbPolyFaceMeshVertex
 10
182.5463543170949
 20
100.1110604531762
 30
5.000000000000126
 70
   192
  0
VERTEX
  5
27A
330
277
100
AcDbEntity
  8
0
100
AcDbVertex
100
AcDbPolyFaceMeshVertex
 10
182.6211671071838
 20
99.63423872451882
 30
0.0000000000005414
 70
   192
  0
VERTEX
  5
27B
330
277
100
AcDbEntity
  8
0
100
AcDbVertex
100
AcDbPolyFaceMeshVertex
 10
182.444886423495
 20
102.7196115852712
 30
5.000000000000217
 70
   192
  0
VERTEX
  5
27C
330
277
100
AcDbEntity
  8
0
100
AcDbFaceRecord
 10
0.0
 20
0.0
 30
0.0
 70
   128
 71
    -1
 72
     2
 73
     3
  0
VERTEX
  5
27D
330
277
100
AcDbEntity
  8
0
100
AcDbFaceRecord
 10
0.0
 20
0.0
 30
0.0
 70
   128
 71
    -2
 72
     1
 73
     4
  0
SEQEND
  5
27E
330
277
100
AcDbEntity
  8
0
  0
POLYLINE
  5
27F
330
1F
100
AcDbEntity
  8
0
100
AcDbPolyFaceMesh
 66
     1
 10
0.0
 20
0.0
 30
0.0
 70
    64
 71
     4
 72
     2
  0
VERTEX
  5
280
330
27F
100
AcDbEntity
  8
0
100
AcDbVertex
100
AcDbPolyFaceMeshVertex
 10
173.8172760876905
 20
194.8565231892877
 30
0.0000000000004512
 70
   192
  0
VERTEX
  5
281
330
27F
100
AcDbEntity
  8
0
100
AcDbVertex
100
AcDbPolyFaceMeshVertex
 10
176.3510144296966
 20
195.4348128115447
 30
5.000000000000036
 70
   192
  0
VERTEX
  5
282
330
27F
100
AcDbEntity
  8
0
100
AcDbVertex
100
AcDbPolyFaceMeshVertex
 10
176.4258272197862
 20
194.9579910828876
 30
0.000000000000361
 70
   192
  0
VERTEX
  5
283
330
27F
100
AcDbEntity
  8
0
100
AcDbVertex
100
AcDbPolyFaceMeshVertex
 10
173.7424632976018
 20
195.3333449179449
 30
5.000000000000036
 70
   192
  0
VERTEX
  5
284
330
27F
100
AcDbEntity
  8
0
100
AcDbFaceRecord
 10
0.0
 20
0.0
 30
0.0
 70
   128
 71
    -1
 72
     2
 73
     3
  0
VERTEX
  5
285
330
27F
100
AcDbEntity
  8
0
100
AcDbFaceRecord
 10
0.0
 20
0.0
 30
0.0
 70
   128
 71
    -2
 72
     1
 73
     4
  0
SEQEND
  5
286
330
27F
100
AcDbEntity
  8
0
  0
POLYLINE
  5
287
330
1F
100
AcDbEntity
  8
0
100
AcDbPolyFaceMesh
 66
     1
 10
0.0
 20
0.0
 30
0.0
 70
    64
 71
     4
 72
     2
  0
VERTEX
  5
288
330
287
100
AcDbEntity
  8
0
100
AcDbVertex
100
AcDbPolyFaceMeshVertex
 10
172.4857662024879
 20
176.0920819188239
 30
0.0000000000002707
 70
   192
  0
VERTEX
  5
289
330
287
100
AcDbEntity
  8
0
100
AcDbVertex
100
AcDbPolyFaceMeshVertex
 10
171.1945516198781
 20
174.259098153216
 30
5.000000000000397
 70
   192
  0
VERTEX
  5
28A
330
287
100
AcDbEntity
  8
0
100
AcDbVertex
100
AcDbPolyFaceMeshVertex
 10
171.2693644099662
 20
173.782276424559
 30
0.000000000000361
 70
   192
  0
VERTEX
  5
28B
330
287
100
AcDbEntity
  8
0
100
AcDbVertex
100
AcDbPolyFaceMeshVertex
 10
172.4109534123994
 20
176.5689036474811
 30
5.000000000000487
 70
   192
  0
VERTEX
  5
28C
330
287
100
AcDbEntity
  8
0
100
AcDbFaceRecord
 10
0.0
 20
0.0
 30
0.0
 70
   128
 71
    -1
 72
     2
 73
     3
  0
VERTEX
  5
28D
330
287
100
AcDbEntity
  8
0
100
AcDbFaceRecord
 10
0.0
 20
0.0
 30
0.0
 70
   128
 71
    -2
 72
     1
 73
     4
  0
SEQEND
  5
28E
330
287
100
AcDbEntity
  8
0
  0
POLYLINE
  5
28F
330
1F
100
AcDbEntity
  8
0
100
AcDbPolyFaceMesh
 66
     1
 10
0.0
 20
0.0
 30
0.0
 70
    64
 71
     4
 72
     2
  0
VERTEX
  5
290
330
28F
100
AcDbEntity
  8
0
100
AcDbVertex
100
AcDbPolyFaceMeshVertex
 10
212.3966283200112
 20
44.35300146659687
 30
5.000000000000126
 70
   192
  0
VERTEX
  5
291
330
28F
100
AcDbEntity
  8
0
100
AcDbVertex
100
AcDbPolyFaceMeshVertex
 10
202.615218561967
 20
42.18654158683126
 30
0.000000000000361
 70
   192
  0
VERTEX
  5
292
330
28F
100
AcDbEntity
  8
0
100
AcDbVertex
100
AcDbPolyFaceMeshVertex
 10
207.5433302766582
 20
43.03136073792142
 30
0.0000000000002707
 70
   192
  0
VERTEX
  5
293
330
28F
100
AcDbEntity
  8
0
100
AcDbVertex
100
AcDbPolyFaceMeshVertex
 10
202.5404057718783
 20
42.66336331548842
 30
5.000000000000306
 70
   192
  0
VERTEX
  5
294
330
28F
100
AcDbEntity
  8
0
100
AcDbFaceRecord
 10
0.0
 20
0.0
 30
0.0
 70
   128
 71
    -1
 72
     2
 73
     3
  0
VERTEX
  5
295
330
28F
100
AcDbEntity
  8
0
100
AcDbFaceRecord
 10
0.0
 20
0.0
 30
0.0
 70
   128
 71
    -2
 72
     1
 73
     4
  0
SEQEND
  5
296
330
28F
100
AcDbEntity
  8
0
  0
POLYLINE
  5
297
330
1F
100
AcDbEntity
  8
0
100
AcDbPolyFaceMesh
 66
     1
 10
0.0
 20
0.0
 30
0.0
 70
    64
 71
     4
 72
     2
  0
VERTEX
  5
298
330
297
100
AcDbEntity
  8
0
100
AcDbVertex
100
AcDbPolyFaceMeshVertex
 10
153.5281638233278
 20
277.2726131799522
 30
0.0000000000004512
 70
   192
  0
VERTEX
  5
299
330
297
100
AcDbEntity
  8
0
100
AcDbVertex
100
AcDbPolyFaceMeshVertex
 10
152.8762187790965
 20
275.2035061775931
 30
4.999999999999946
 70
   192
  0
VERTEX
  5
29A
330
297
100
AcDbEntity
  8
0
100
AcDbVertex
100
AcDbPolyFaceMeshVertex
 10
152.9510315691853
 20
274.7266844489359
 30
0.0000000000002707
 70
   192
  0
VERTEX
  5
29B
330
297
100
AcDbEntity
  8
0
100
AcDbVertex
100
AcDbPolyFaceMeshVertex
 10
153.4533510332389
 20
277.7494349086094
 30
4.999999999999946
 70
   192
  0
VERTEX
  5
29C
330
297
100
AcDbEntity
  8
0
100
AcDbFaceRecord
 10
0.0
 20
0.0
 30
0.0
 70
   128
 71
    -1
 72
     2
 73
     3
  0
VERTEX
  5
29D
330
297
100
AcDbEntity
  8
0
100
AcDbFaceRecord
 10
0.0
 20
0.0
 30
0.0
 70
   128
 71
    -2
 72
     1
 73
     4
  0
SEQEND
  5
29E
330
297
100
AcDbEntity
  8
0
  0
POLYLINE
  5
29F
330
1F
100
AcDbEntity
  8
0
100
AcDbPolyFaceMesh
 66
     1
 10
0.0
 20
0.0
 30
0.0
 70
    64
 71
     4
 72
     2
  0
VERTEX
  5
2A0
330
29F
100
AcDbEntity
  8
0
100
AcDbVertex
100
AcDbPolyFaceMeshVertex
 10
147.1387659339058
 20
306.6149122353049
 30
0.000000000000361
 70
   192
  0
VERTEX
  5
2A1
330
29F
100
AcDbEntity
  8
0
100
AcDbVertex
100
AcDbPolyFaceMeshVertex
 10
147.8371063158939
 20
304.5983288796062
 30
5.000000000000217
 70
   192
  0
VERTEX
  5
2A2
330
29F
100
AcDbEntity
  8
0
100
AcDbVertex
100
AcDbPolyFaceMeshVertex
 10
147.9119191059831
 20
304.1215071509488
 30
0.0000000000000902
 70
   192
  0
VERTEX
  5
2A3
330
29F
100
AcDbEntity
  8
0
100
AcDbVertex
100
AcDbPolyFaceMeshVertex
 10
147.0639531438169
 20
307.0917339639622
 30
5.000000000000036
 70
   192
  0
VERTEX
  5
2A4
330
29F
100
AcDbEntity
  8
0
100
AcDbFaceRecord
 10
0.0
 20
0.0
 30
0.0
 70
   128
 71
    -1
 72
     2
 73
     3
  0
VERTEX
  5
2A5
330
29F
100
AcDbEntity
  8
0
100
AcDbFaceRecord
 10
0.0
 20
0.0
 30
0.0
 70
   128
 71
    -2
 72
     1
 73
     4
  0
SEQEND
  5
2A6
330
29F
100
AcDbEntity
  8
0
  0
POLYLINE
  5
2A7
330
1F
100
AcDbEntity
  8
0
100
AcDbPolyFaceMesh
 66
     1
 10
0.0
 20
0.0
 30
0.0
 70
    64
 71
     4
 72
     2
  0
VERTEX
  5
2A8
330
2A7
100
AcDbEntity
  8
0
100
AcDbVertex
100
AcDbPolyFaceMeshVertex
 10
200.5691612622517
 20
113.346559303526
 30
5.000000000000217
 70
   192
  0
VERTEX
  5
2A9
330
2A7
100
AcDbEntity
  8
0
100
AcDbVertex
100
AcDbPolyFaceMeshVertex
 10
190.7877515042077
 20
111.1800994237601
 30
0.0000000000004512
 70
   192
  0
VERTEX
  5
2AA
330
2A7
100
AcDbEntity
  8
0
100
AcDbVertex
100
AcDbPolyFaceMeshVertex
 10
195.715863218899
 20
112.0249185748499
 30
0.000000000000361
 70
   192
  0
VERTEX
  5
2AB
330
2A7
100
AcDbEntity
  8
0
100
AcDbVertex
100
AcDbPolyFaceMeshVertex
 10
190.7129387141189
 20
111.6569211524172
 30
5.000000000000126
 70
   192
  0
VERTEX
  5
2AC
330
2A7
100
AcDbEntity
  8
0
100
AcDbFaceRecord
 10
0.0
 20
0.0
 30
0.0
 70
   128
 71
    -1
 72
     2
 73
     3
  0
VERTEX
  5
2AD
330
2A7
100
AcDbEntity
  8
0
100
AcDbFaceRecord
 10
0.0
 20
0.0
 30
0.0
 70
   128
 71
    -2
 72
     1
 73
     4
  0
SEQEND
  5
2AE
330
2A7
100
AcDbEntity
  8
0
  0
POLYLINE
  5
2AF
330
1F
100
AcDbEntity
  8
0
100
AcDbPolyFaceMesh
 66
     1
 10
0.0
 20
0.0
 30
0.0
 70
    64
 71
     4
 72
     2
  0
VERTEX
  5
2B0
330
2AF
100
AcDbEntity
  8
0
100
AcDbVertex
100
AcDbPolyFaceMeshVertex
 10
171.5668532215014
 20
166.1343914770914
 30
0.0000000000004512
 70
   192
  0
VERTEX
  5
2B1
330
2AF
100
AcDbEntity
  8
0
100
AcDbVertex
100
AcDbPolyFaceMeshVertex
 10
172.8841897709862
 20
164.4028756050835
 30
5.000000000000306
 70
   192
  0
VERTEX
  5
2B2
330
2AF
100
AcDbEntity
  8
0
100
AcDbVertex
100
AcDbPolyFaceMeshVertex
 10
172.9590025610752
 20
163.9260538764263
 30
0.000000000000361
 70
   192
  0
VERTEX
  5
2B3
330
2AF
100
AcDbEntity
  8
0
100
AcDbVertex
100
AcDbPolyFaceMeshVertex
 10
171.492040431412
 20
166.6112132057488
 30
5.000000000000397
 70
   192
  0
VERTEX
  5
2B4
330
2AF
100
AcDbEntity
  8
0
100
AcDbFaceRecord
 10
0.0
 20
0.0
 30
0.0
 70
   128
 71
    -1
 72
     2
 73
     3
  0
VERTEX
  5
2B5
330
2AF
100
AcDbEntity
  8
0
100
AcDbFaceRecord
 10
0.0
 20
0.0
 30
0.0
 70
   128
 71
    -2
 72
     1
 73
     4
  0
SEQEND
  5
2B6
330
2AF
100
AcDbEntity
  8
0
  0
POLYLINE
  5
2B7
330
1F
100
AcDbEntity
  8
0
100
AcDbPolyFaceMesh
 66
     1
 10
0.0
 20
0.0
 30
0.0
 70
    64
 71
     4
 72
     2
  0
VERTEX
  5
2B8
330
2B7
100
AcDbEntity
  8
0
100
AcDbVertex
100
AcDbPolyFaceMeshVertex
 10
183.0240016243451
 20
126.9169193351587
 30
5.000000000000487
 70
   192
  0
VERTEX
  5
2B9
330
2B7
100
AcDbEntity
  8
0
100
AcDbVertex
100
AcDbPolyFaceMeshVertex
 10
185.6447431454498
 20
125.862965352359
 30
0.0000000000004512
 70
   192
  0
VERTEX
  5
2BA
330
2B7
100
AcDbEntity
  8
0
100
AcDbVertex
100
AcDbPolyFaceMeshVertex
 10
183.0988144144333
 20
126.4400976065017
 30
0.000000000000361
 70
   192
  0
VERTEX
  5
2BB
330
2B7
100
AcDbEntity
  8
0
100
AcDbVertex
100
AcDbPolyFaceMeshVertex
 10
185.5699303553614
 20
126.3397870810161
 30
5.000000000000306
 70
   192
  0
VERTEX
  5
2BC
330
2B7
100
AcDbEntity
  8
0
100
AcDbFaceRecord
 10
0.0
 20
0.0
 30
0.0
 70
   128
 71
    -1
 72
     2
 73
     3
  0
VERTEX
  5
2BD
330
2B7
100
AcDbEntity
  8
0
100
AcDbFaceRecord
 10
0.0
 20
0.0
 30
0.0
 70
   128
 71
    -2
 72
     1
 73
     4
  0
SEQEND
  5
2BE
330
2B7
100
AcDbEntity
  8
0
  0
POLYLINE
  5
2BF
330
1F
100
AcDbEntity
  8
0
100
AcDbPolyFaceMesh
 66
     1
 10
0.0
 20
0.0
 30
0.0
 70
    64
 71
     4
 72
     2
  0
VERTEX
  5
2C0
330
2BF
100
AcDbEntity
  8
0
100
AcDbVertex
100
AcDbPolyFaceMeshVertex
 10
194.2080799487311
 20
75.91016733321803
 30
0.0000000000004512
 70
   192
  0
VERTEX
  5
2C1
330
2BF
100
AcDbEntity
  8
0
100
AcDbVertex
100
AcDbPolyFaceMeshVertex
 10
191.9249295579774
 20
74.99483972230186
 30
5.000000000000217
 70
   192
  0
VERTEX
  5
2C2
330
2BF
100
AcDbEntity
  8
0
100
AcDbVertex
100
AcDbPolyFaceMeshVertex
 10
191.999742348066
 20
74.51801799364435
 30
0.0000000000002707
 70
   192
  0
VERTEX
  5
2C3
330
2BF
100
AcDbEntity
  8
0
100
AcDbVertex
100
AcDbPolyFaceMeshVertex
 10
194.1332671586421
 20
76.38698906187554
 30
5.000000000000036
 70
   192
  0
VERTEX
  5
2C4
330
2BF
100
AcDbEntity
  8
0
100
AcDbFaceRecord
 10
0.0
 20
0.0
 30
0.0
 70
   128
 71
    -1
 72
     2
 73
     3
  0
VERTEX
  5
2C5
330
2BF
100
AcDbEntity
  8
0
100
AcDbFaceRecord
 10
0.0
 20
0.0
 30
0.0
 70
   128
 71
    -2
 72
     1
 73
     4
  0
SEQEND
  5
2C6
330
2BF
100
AcDbEntity
  8
0
  0
POLYLINE
  5
2C7
330
1F
100
AcDbEntity
  8
0
100
AcDbPolyFaceMesh
 66
     1
 10
0.0
 20
0.0
 30
0.0
 70
    64
 71
     4
 72
     2
  0
VERTEX
  5
2C8
330
2C7
100
AcDbEntity
  8
0
100
AcDbVertex
100
AcDbPolyFaceMeshVertex
 10
170.6922321558239
 20
171.2363476935427
 30
0.0000000000002707
 70
   192
  0
VERTEX
  5
2C9
330
2C7
100
AcDbEntity
  8
0
100
AcDbVertex
100
AcDbPolyFaceMeshVertex
 10
170.7188872593347
 20
169.1046182901045
 30
5.000000000000306
 70
   192
  0
VERTEX
  5
2CA
330
2C7
100
AcDbEntity
  8
0
100
AcDbVertex
100
AcDbPolyFaceMeshVertex
 10
170.7937000494239
 20
168.6277965614476
 30
0.000000000000361
 70
   192
  0
VERTEX
  5
2CB
330
2C7
100
AcDbEntity
  8
0
100
AcDbVertex
100
AcDbPolyFaceMeshVertex
 10
170.6174193657353
 20
171.7131694221997
 30
5.000000000000217
 70
   192
  0
VERTEX
  5
2CC
330
2C7
100
AcDbEntity
  8
0
100
AcDbFaceRecord
 10
0.0
 20
0.0
 30
0.0
 70
   128
 71
    -1
 72
     2
 73
     3
  0
VERTEX
  5
2CD
330
2C7
100
AcDbEntity
  8
0
100
AcDbFaceRecord
 10
0.0
 20
0.0
 30
0.0
 70
   128
 71
    -2
 72
     1
 73
     4
  0
SEQEND
  5
2CE
330
2C7
100
AcDbEntity
  8
0
  0
POLYLINE
  5
2CF
330
1F
100
AcDbEntity
  8
0
100
AcDbPolyFaceMesh
 66
     1
 10
0.0
 20
0.0
 30
0.0
 70
    64
 71
     4
 72
     2
  0
VERTEX
  5
2D0
330
2CF
100
AcDbEntity
  8
0
100
AcDbVertex
100
AcDbPolyFaceMeshVertex
 10
178.3994997313684
 20
141.5953030003598
 30
0.000000000000361
 70
   192
  0
VERTEX
  5
2D1
330
2CF
100
AcDbEntity
  8
0
100
AcDbVertex
100
AcDbPolyFaceMeshVertex
 10
177.1082851487572
 20
139.7623192347518
 30
5.000000000000306
 70
   192
  0
VERTEX
  5
2D2
330
2CF
100
AcDbEntity
  8
0
100
AcDbVertex
100
AcDbPolyFaceMeshVertex
 10
177.183097938847
 20
139.2854975060947
 30
0.000000000000361
 70
   192
  0
VERTEX
  5
2D3
330
2CF
100
AcDbEntity
  8
0
100
AcDbVertex
100
AcDbPolyFaceMeshVertex
 10
178.324686941279
 20
142.0721247290168
 30
5.000000000000126
 70
   192
  0
VERTEX
  5
2D4
330
2CF
100
AcDbEntity
  8
0
100
AcDbFaceRecord
 10
0.0
 20
0.0
 30
0.0
 70
   128
 71
    -1
 72
     2
 73
     3
  0
VERTEX
  5
2D5
330
2CF
100
AcDbEntity
  8
0
100
AcDbFaceRecord
 10
0.0
 20
0.0
 30
0.0
 70
   128
 71
    -2
 72
     1
 73
     4
  0
SEQEND
  5
2D6
330
2CF
100
AcDbEntity
  8
0
  0
POLYLINE
  5
2D7
330
1F
100
AcDbEntity
  8
0
100
AcDbPolyFaceMesh
 66
     1
 10
0.0
 20
0.0
 30
0.0
 70
    64
 71
     4
 72
     2
  0
VERTEX
  5
2D8
330
2D7
100
AcDbEntity
  8
0
100
AcDbVertex
100
AcDbPolyFaceMeshVertex
 10
167.8287297687217
 20
229.8301238364093
 30
5.000000000000036
 70
   192
  0
VERTEX
  5
2D9
330
2D7
100
AcDbEntity
  8
0
100
AcDbVertex
100
AcDbPolyFaceMeshVertex
 10
170.5120936909061
 20
229.4547700013521
 30
0.0000000000004512
 70
   192
  0
VERTEX
  5
2DA
330
2D7
100
AcDbEntity
  8
0
100
AcDbVertex
100
AcDbPolyFaceMeshVertex
 10
167.9035425588105
 20
229.3533021077522
 30
0.0000000000004512
 70
   192
  0
VERTEX
  5
2DB
330
2D7
100
AcDbEntity
  8
0
100
AcDbVertex
100
AcDbPolyFaceMeshVertex
 10
170.437280900817
 20
229.9315917300092
 30
5.000000000000126
 70
   192
  0
VERTEX
  5
2DC
330
2D7
100
AcDbEntity
  8
0
100
AcDbFaceRecord
 10
0.0
 20
0.0
 30
0.0
 70
   128
 71
    -1
 72
     2
 73
     3
  0
VERTEX
  5
2DD
330
2D7
100
AcDbEntity
  8
0
100
AcDbFaceRecord
 10
0.0
 20
0.0
 30
0.0
 70
   128
 71
    -2
 72
     1
 73
     4
  0
SEQEND
  5
2DE
330
2D7
100
AcDbEntity
  8
0
  0
POLYLINE
  5
2DF
330
1F
100
AcDbEntity
  8
0
100
AcDbPolyFaceMesh
 66
     1
 10
0.0
 20
0.0
 30
0.0
 70
    64
 71
     4
 72
     2
  0
VERTEX
  5
2E0
330
2DF
100
AcDbEntity
  8
0
100
AcDbVertex
100
AcDbPolyFaceMeshVertex
 10
190.7002031477139
 20
60.43571712103318
 30
0.0000000000004512
 70
   192
  0
VERTEX
  5
2E1
330
2DF
100
AcDbEntity
  8
0
100
AcDbVertex
100
AcDbPolyFaceMeshVertex
 10
192.541663187839
 20
59.13976329075162
 30
5.000000000000126
 70
   192
  0
VERTEX
  5
2E2
330
2DF
100
AcDbEntity
  8
0
100
AcDbVertex
100
AcDbPolyFaceMeshVertex
 10
192.6164759779279
 20
58.66294156209401
 30
0.0000000000002707
 70
   192
  0
VERTEX
  5
2E3
330
2DF
100
AcDbEntity
  8
0
100
AcDbVertex
100
AcDbPolyFaceMeshVertex
 10
190.6253903576251
 20
60.91253884969034
 30
5.000000000000036
 70
   192
  0
VERTEX
  5
2E4
330
2DF
100
AcDbEntity
  8
0
100
AcDbFaceRecord
 10
0.0
 20
0.0
 30
0.0
 70
   128
 71
    -1
 72
     2
 73
     3
  0
VERTEX
  5
2E5
330
2DF
100
AcDbEntity
  8
0
100
AcDbFaceRecord
 10
0.0
 20
0.0
 30
0.0
 70
   128
 71
    -2
 72
     1
 73
     4
  0
SEQEND
  5
2E6
330
2DF
100
AcDbEntity
  8
0
  0
POLYLINE
  5
2E7
330
1F
100
AcDbEntity
  8
0
100
AcDbPolyFaceMesh
 66
     1
 10
0.0
 20
0.0
 30
0.0
 70
    64
 71
     4
 72
     2
  0
VERTEX
  5
2E8
330
2E7
100
AcDbEntity
  8
0
100
AcDbVertex
100
AcDbPolyFaceMeshVertex
 10
192.541663187839
 20
59.13976329075162
 30
5.000000000000126
 70
   192
  0
VERTEX
  5
2E9
330
2E7
100
AcDbEntity
  8
0
100
AcDbVertex
100
AcDbPolyFaceMeshVertex
 10
194.9262814721925
 20
57.44653976957265
 30
0.000000000000361
 70
   192
  0
VERTEX
  5
2EA
330
2E7
100
AcDbEntity
  8
0
100
AcDbVertex
100
AcDbPolyFaceMeshVertex
 10
192.6164759779279
 20
58.66294156209401
 30
0.0000000000002707
 70
   192
  0
VERTEX
  5
2EB
330
2E7
100
AcDbEntity
  8
0
100
AcDbVertex
100
AcDbPolyFaceMeshVertex
 10
194.8514686821042
 20
57.92336149823008
 30
5.000000000000126
 70
   192
  0
VERTEX
  5
2EC
330
2E7
100
AcDbEntity
  8
0
100
AcDbFaceRecord
 10
0.0
 20
0.0
 30
0.0
 70
   128
 71
    -1
 72
     2
 73
     3
  0
VERTEX
  5
2ED
330
2E7
100
AcDbEntity
  8
0
100
AcDbFaceRecord
 10
0.0
 20
0.0
 30
0.0
 70
   128
 71
    -2
 72
     1
 73
     4
  0
SEQEND
  5
2EE
330
2E7
100
AcDbEntity
  8
0
  0
POLYLINE
  5
2EF
330
1F
100
AcDbEntity
  8
0
100
AcDbPolyFaceMesh
 66
     1
 10
0.0
 20
0.0
 30
0.0
 70
    64
 71
     4
 72
     2
  0
VERTEX
  5
2F0
330
2EF
100
AcDbEntity
  8
0
100
AcDbVertex
100
AcDbPolyFaceMeshVertex
 10
183.096831467726
 20
104.7887185876303
 30
0.000000000000361
 70
   192
  0
VERTEX
  5
2F1
330
2EF
100
AcDbEntity
  8
0
100
AcDbVertex
100
AcDbPolyFaceMeshVertex
 10
182.444886423495
 20
102.7196115852712
 30
5.000000000000217
 70
   192
  0
VERTEX
  5
2F2
330
2EF
100
AcDbEntity
  8
0
100
AcDbVertex
100
AcDbPolyFaceMeshVertex
 10
182.5196992135834
 20
102.242789856614
 30
0.0000000000001805
 70
   192
  0
VERTEX
  5
2F3
330
2EF
100
AcDbEntity
  8
0
100
AcDbVertex
100
AcDbPolyFaceMeshVertex
 10
183.0220186776373
 20
105.2655403162875
 30
5.000000000000306
 70
   192
  0
VERTEX
  5
2F4
330
2EF
100
AcDbEntity
  8
0
100
AcDbFaceRecord
 10
0.0
 20
0.0
 30
0.0
 70
   128
 71
    -1
 72
     2
 73
     3
  0
VERTEX
  5
2F5
330
2EF
100
AcDbEntity
  8
0
100
AcDbFaceRecord
 10
0.0
 20
0.0
 30
0.0
 70
   128
 71
    -2
 72
     1
 73
     4
  0
SEQEND
  5
2F6
330
2EF
100
AcDbEntity
  8
0
  0
POLYLINE
  5
2F7
330
1F
100
AcDbEntity
  8
0
100
AcDbPolyFaceMesh
 66
     1
 10
0.0
 20
0.0
 30
0.0
 70
    64
 71
     4
 72
     2
  0
VERTEX
  5
2F8
330
2F7
100
AcDbEntity
  8
0
100
AcDbVertex
100
AcDbPolyFaceMeshVertex
 10
206.4828947911308
 20
78.84978038506136
 30
5.000000000000217
 70
   192
  0
VERTEX
  5
2F9
330
2F7
100
AcDbEntity
  8
0
100
AcDbVertex
100
AcDbPolyFaceMeshVertex
 10
196.7014850330869
 20
76.68332050529567
 30
0.0000000000002707
 70
   192
  0
VERTEX
  5
2FA
330
2F7
100
AcDbEntity
  8
0
100
AcDbVertex
100
AcDbPolyFaceMeshVertex
 10
201.6295967477785
 20
77.52813965638556
 30
0.0000000000002707
 70
   192
  0
VERTEX
  5
2FB
330
2F7
100
AcDbEntity
  8
0
100
AcDbVertex
100
AcDbPolyFaceMeshVertex
 10
196.6266722429984
 20
77.16014223395266
 30
5.000000000000306
 70
   192
  0
VERTEX
  5
2FC
330
2F7
100
AcDbEntity
  8
0
100
AcDbFaceRecord
 10
0.0
 20
0.0
 30
0.0
 70
   128
 71
    -1
 72
     2
 73
     3
  0
VERTEX
  5
2FD
330
2F7
100
AcDbEntity
  8
0
100
AcDbFaceRecord
 10
0.0
 20
0.0
 30
0.0
 70
   128
 71
    -2
 72
     1
 73
     4
  0
SEQEND
  5
2FE
330
2F7
100
AcDbEntity
  8
0
  0
POLYLINE
  5
2FF
330
1F
100
AcDbEntity
  8
0
100
AcDbPolyFaceMesh
 66
     1
 10
0.0
 20
0.0
 30
0.0
 70
    64
 71
     4
 72
     2
  0
VERTEX
  5
300
330
2FF
100
AcDbEntity
  8
0
100
AcDbVertex
100
AcDbPolyFaceMeshVertex
 10
186.0860088191868
 20
109.0147969121088
 30
0.0000000000004512
 70
   192
  0
VERTEX
  5
301
330
2FF
100
AcDbEntity
  8
0
100
AcDbVertex
100
AcDbPolyFaceMeshVertex
 10
184.238420470159
 20
107.5753458105526
 30
5.000000000000306
 70
   192
  0
VERTEX
  5
302
330
2FF
100
AcDbEntity
  8
0
100
AcDbVertex
100
AcDbPolyFaceMeshVertex
 10
184.3132332602475
 20
107.0985240818954
 30
0.000000000000361
 70
   192
  0
VERTEX
  5
303
330
2FF
100
AcDbEntity
  8
0
100
AcDbVertex
100
AcDbPolyFaceMeshVertex
 10
186.0111960290976
 20
109.4916186407663
 30
5.000000000000036
 70
   192
  0
VERTEX
  5
304
330
2FF
100
AcDbEntity
  8
0
100
AcDbFaceRecord
 10
0.0
 20
0.0
 30
0.0
 70
   128
 71
    -1
 72
     2
 73
     3
  0
VERTEX
  5
305
330
2FF
100
AcDbEntity
  8
0
100
AcDbFaceRecord
 10
0.0
 20
0.0
 30
0.0
 70
   128
 71
    -2
 72
     1
 73
     4
  0
SEQEND
  5
306
330
2FF
100
AcDbEntity
  8
0
  0
POLYLINE
  5
307
330
1F
100
AcDbEntity
  8
0
100
AcDbPolyFaceMesh
 66
     1
 10
0.0
 20
0.0
 30
0.0
 70
    64
 71
     4
 72
     2
  0
VERTEX
  5
308
330
307
100
AcDbEntity
  8
0
100
AcDbVertex
100
AcDbPolyFaceMeshVertex
 10
186.6279296589593
 20
93.63654220921595
 30
5.000000000000306
 70
   192
  0
VERTEX
  5
309
330
307
100
AcDbEntity
  8
0
100
AcDbVertex
100
AcDbPolyFaceMeshVertex
 10
189.0125479433132
 20
91.94331868803724
 30
0.000000000000361
 70
   192
  0
VERTEX
  5
30A
330
307
100
AcDbEntity
  8
0
100
AcDbVertex
100
AcDbPolyFaceMeshVertex
 10
186.7027424490481
 20
93.1597204805586
 30
0.0000000000002707
 70
   192
  0
VERTEX
  5
30B
330
307
100
AcDbEntity
  8
0
100
AcDbVertex
100
AcDbPolyFaceMeshVertex
 10
188.9377351532242
 20
92.4201404166944
 30
5.000000000000217
 70
   192
  0
VERTEX
  5
30C
330
307
100
AcDbEntity
  8
0
100
AcDbFaceRecord
 10
0.0
 20
0.0
 30
0.0
 70
   128
 71
    -1
 72
     2
 73
     3
  0
VERTEX
  5
30D
330
307
100
AcDbEntity
  8
0
100
AcDbFaceRecord
 10
0.0
 20
0.0
 30
0.0
 70
   128
 71
    -2
 72
     1
 73
     4
  0
SEQEND
  5
30E
330
307
100
AcDbEntity
  8
0
  0
POLYLINE
  5
30F
330
1F
100
AcDbEntity
  8
0
100
AcDbPolyFaceMesh
 66
     1
 10
0.0
 20
0.0
 30
0.0
 70
    64
 71
     4
 72
     2
  0
VERTEX
  5
310
330
30F
100
AcDbEntity
  8
0
100
AcDbVertex
100
AcDbPolyFaceMeshVertex
 10
174.2585417614278
 20
178.0083547490376
 30
0.0000000000001805
 70
   192
  0
VERTEX
  5
311
330
30F
100
AcDbEntity
  8
0
100
AcDbVertex
100
AcDbPolyFaceMeshVertex
 10
172.4109534123994
 20
176.5689036474811
 30
5.000000000000487
 70
   192
  0
VERTEX
  5
312
330
30F
100
AcDbEntity
  8
0
100
AcDbVertex
100
AcDbPolyFaceMeshVertex
 10
172.4857662024879
 20
176.0920819188239
 30
0.0000000000002707
 70
   192
  0
VERTEX
  5
313
330
30F
100
AcDbEntity
  8
0
100
AcDbVertex
100
AcDbPolyFaceMeshVertex
 10
174.1837289713381
 20
178.485176477695
 30
5.000000000000306
 70
   192
  0
VERTEX
  5
314
330
30F
100
AcDbEntity
  8
0
100
AcDbFaceRecord
 10
0.0
 20
0.0
 30
0.0
 70
   128
 71
    -1
 72
     2
 73
     3
  0
VERTEX
  5
315
330
30F
100
AcDbEntity
  8
0
100
AcDbFaceRecord
 10
0.0
 20
0.0
 30
0.0
 70
   128
 71
    -2
 72
     1
 73
     4
  0
SEQEND
  5
316
330
30F
100
AcDbEntity
  8
0
  0
POLYLINE
  5
317
330
1F
100
AcDbEntity
  8
0
100
AcDbPolyFaceMesh
 66
     1
 10
0.0
 20
0.0
 30
0.0
 70
    64
 71
     4
 72
     2
  0
VERTEX
  5
318
330
317
100
AcDbEntity
  8
0
100
AcDbVertex
100
AcDbPolyFaceMeshVertex
 10
196.6266722429984
 20
77.16014223395266
 30
5.000000000000306
 70
   192
  0
VERTEX
  5
319
330
317
100
AcDbEntity
  8
0
100
AcDbVertex
100
AcDbPolyFaceMeshVertex
 10
194.2080799487311
 20
75.91016733321803
 30
0.0000000000004512
 70
   192
  0
VERTEX
  5
31A
330
317
100
AcDbEntity
  8
0
100
AcDbVertex
100
AcDbPolyFaceMeshVertex
 10
196.7014850330869
 20
76.68332050529567
 30
0.0000000000002707
 70
   192
  0
VERTEX
  5
31B
330
317
100
AcDbEntity
  8
0
100
AcDbVertex
100
AcDbPolyFaceMeshVertex
 10
194.1332671586421
 20
76.38698906187554
 30
5.000000000000036
 70
   192
  0
VERTEX
  5
31C
330
317
100
AcDbEntity
  8
0
100
AcDbFaceRecord
 10
0.0
 20
0.0
 30
0.0
 70
   128
 71
    -1
 72
     2
 73
     3
  0
VERTEX
  5
31D
330
317
100
AcDbEntity
  8
0
100
AcDbFaceRecord
 10
0.0
 20
0.0
 30
0.0
 70
   128
 71
    -2
 72
     1
 73
     4
  0
SEQEND
  5
31E
330
317
100
AcDbEntity
  8
0
  0
POLYLINE
  5
31F
330
1F
100
AcDbEntity
  8
0
100
AcDbPolyFaceMesh
 66
     1
 10
0.0
 20
0.0
 30
0.0
 70
    64
 71
     4
 72
     2
  0
VERTEX
  5
320
330
31F
100
AcDbEntity
  8
0
100
AcDbVertex
100
AcDbPolyFaceMeshVertex
 10
188.534900636063
 20
65.13745980605422
 30
0.000000000000361
 70
   192
  0
VERTEX
  5
321
330
31F
100
AcDbEntity
  8
0
100
AcDbVertex
100
AcDbPolyFaceMeshVertex
 10
189.2332410180516
 20
63.12087645035563
 30
5.000000000000217
 70
   192
  0
VERTEX
  5
322
330
31F
100
AcDbEntity
  8
0
100
AcDbVertex
100
AcDbPolyFaceMeshVertex
 10
189.3080538081401
 20
62.64405472169802
 30
0.0000000000002707
 70
   192
  0
VERTEX
  5
323
330
31F
100
AcDbEntity
  8
0
100
AcDbVertex
100
AcDbPolyFaceMeshVertex
 10
188.4600878459745
 20
65.6142815347113
 30
5.000000000000306
 70
   192
  0
VERTEX
  5
324
330
31F
100
AcDbEntity
  8
0
100
AcDbFaceRecord
 10
0.0
 20
0.0
 30
0.0
 70
   128
 71
    -1
 72
     2
 73
     3
  0
VERTEX
  5
325
330
31F
100
AcDbEntity
  8
0
100
AcDbFaceRecord
 10
0.0
 20
0.0
 30
0.0
 70
   128
 71
    -2
 72
     1
 73
     4
  0
SEQEND
  5
326
330
31F
100
AcDbEntity
  8
0
  0
POLYLINE
  5
327
330
1F
100
AcDbEntity
  8
0
100
AcDbPolyFaceMesh
 66
     1
 10
0.0
 20
0.0
 30
0.0
 70
    64
 71
     4
 72
     2
  0
VERTEX
  5
328
330
327
100
AcDbEntity
  8
0
100
AcDbVertex
100
AcDbPolyFaceMeshVertex
 10
189.3080538081401
 20
62.64405472169802
 30
0.0000000000002707
 70
   192
  0
VERTEX
  5
329
330
327
100
AcDbEntity
  8
0
100
AcDbVertex
100
AcDbPolyFaceMeshVertex
 10
190.6253903576251
 20
60.91253884969034
 30
5.000000000000036
 70
   192
  0
VERTEX
  5
32A
330
327
100
AcDbEntity
  8
0
100
AcDbVertex
100
AcDbPolyFaceMeshVertex
 10
190.7002031477139
 20
60.43571712103318
 30
0.0000000000004512
 70
   192
  0
VERTEX
  5
32B
330
327
100
AcDbEntity
  8
0
100
AcDbVertex
100
AcDbPolyFaceMeshVertex
 10
189.2332410180516
 20
63.12087645035563
 30
5.000000000000217
 70
   192
  0
VERTEX
  5
32C
330
327
100
AcDbEntity
  8
0
100
AcDbFaceRecord
 10
0.0
 20
0.0
 30
0.0
 70
   128
 71
    -1
 72
     2
 73
     3
  0
VERTEX
  5
32D
330
327
100
AcDbEntity
  8
0
100
AcDbFaceRecord
 10
0.0
 20
0.0
 30
0.0
 70
   128
 71
    -2
 72
     1
 73
     4
  0
SEQEND
  5
32E
330
327
100
AcDbEntity
  8
0
  0
POLYLINE
  5
32F
330
1F
100
AcDbEntity
  8
0
100
AcDbPolyFaceMesh
 66
     1
 10
0.0
 20
0.0
 30
0.0
 70
    64
 71
     4
 72
     2
  0
VERTEX
  5
330
330
32F
100
AcDbEntity
  8
0
100
AcDbVertex
100
AcDbPolyFaceMeshVertex
 10
183.3943202792612
 20
97.14083364016253
 30
0.0000000000002707
 70
   192
  0
VERTEX
  5
331
330
32F
100
AcDbEntity
  8
0
100
AcDbVertex
100
AcDbPolyFaceMeshVertex
 10
184.7116568287459
 20
95.40931776815493
 30
5.000000000000306
 70
   192
  0
VERTEX
  5
332
330
32F
100
AcDbEntity
  8
0
100
AcDbVertex
100
AcDbPolyFaceMeshVertex
 10
184.7864696188344
 20
94.9324960394975
 30
0.0000000000001805
 70
   192
  0
VERTEX
  5
333
330
32F
100
AcDbEntity
  8
0
100
AcDbVertex
100
AcDbPolyFaceMeshVertex
 10
183.3195074891721
 20
97.61765536881995
 30
5.000000000000217
 70
   192
  0
VERTEX
  5
334
330
32F
100
AcDbEntity
  8
0
100
AcDbFaceRecord
 10
0.0
 20
0.0
 30
0.0
 70
   128
 71
    -1
 72
     2
 73
     3
  0
VERTEX
  5
335
330
32F
100
AcDbEntity
  8
0
100
AcDbFaceRecord
 10
0.0
 20
0.0
 30
0.0
 70
   128
 71
    -2
 72
     1
 73
     4
  0
SEQEND
  5
336
330
32F
100
AcDbEntity
  8
0
  0
POLYLINE
  5
337
330
1F
100
AcDbEntity
  8
0
100
AcDbPolyFaceMesh
 66
     1
 10
0.0
 20
0.0
 30
0.0
 70
    64
 71
     4
 72
     2
  0
VERTEX
  5
338
330
337
100
AcDbEntity
  8
0
100
AcDbVertex
100
AcDbPolyFaceMeshVertex
 10
171.2693644099662
 20
173.782276424559
 30
0.000000000000361
 70
   192
  0
VERTEX
  5
339
330
337
100
AcDbEntity
  8
0
100
AcDbVertex
100
AcDbPolyFaceMeshVertex
 10
170.6174193657353
 20
171.7131694221997
 30
5.000000000000217
 70
   192
  0
VERTEX
  5
33A
330
337
100
AcDbEntity
  8
0
100
AcDbVertex
100
AcDbPolyFaceMeshVertex
 10
170.6922321558239
 20
171.2363476935427
 30
0.0000000000002707
 70
   192
  0
VERTEX
  5
33B
330
337
100
AcDbEntity
  8
0
100
AcDbVertex
100
AcDbPolyFaceMeshVertex
 10
171.1945516198781
 20
174.259098153216
 30
5.000000000000397
 70
   192
  0
VERTEX
  5
33C
330
337
100
AcDbEntity
  8
0
100
AcDbFaceRecord
 10
0.0
 20
0.0
 30
0.0
 70
   128
 71
    -1
 72
     2
 73
     3
  0
VERTEX
  5
33D
330
337
100
AcDbEntity
  8
0
100
AcDbFaceRecord
 10
0.0
 20
0.0
 30
0.0
 70
   128
 71
    -2
 72
     1
 73
     4
  0
SEQEND
  5
33E
330
337
100
AcDbEntity
  8
0
  0
POLYLINE
  5
33F
330
1F
100
AcDbEntity
  8
0
100
AcDbPolyFaceMesh
 66
     1
 10
0.0
 20
0.0
 30
0.0
 70
    64
 71
     4
 72
     2
  0
VERTEX
  5
340
330
33F
100
AcDbEntity
  8
0
100
AcDbVertex
100
AcDbPolyFaceMeshVertex
 10
161.9149962398424
 20
264.3269027548737
 30
5.000000000000217
 70
   192
  0
VERTEX
  5
341
330
33F
100
AcDbEntity
  8
0
100
AcDbVertex
100
AcDbPolyFaceMeshVertex
 10
164.5983601620262
 20
263.9515489198164
 30
0.0000000000005414
 70
   192
  0
VERTEX
  5
342
330
33F
100
AcDbEntity
  8
0
100
AcDbVertex
100
AcDbPolyFaceMeshVertex
 10
161.9898090299309
 20
263.8500810262166
 30
0.0000000000002707
 70
   192
  0
VERTEX
  5
343
330
33F
100
AcDbEntity
  8
0
100
AcDbVertex
100
AcDbPolyFaceMeshVertex
 10
164.5235473719376
 20
264.4283706484737
 30
4.999999999999946
 70
   192
  0
VERTEX
  5
344
330
33F
100
AcDbEntity
  8
0
100
AcDbFaceRecord
 10
0.0
 20
0.0
 30
0.0
 70
   128
 71
    -1
 72
     2
 73
     3
  0
VERTEX
  5
345
330
33F
100
AcDbEntity
  8
0
100
AcDbFaceRecord
 10
0.0
 20
0.0
 30
0.0
 70
   128
 71
    -2
 72
     1
 73
     4
  0
SEQEND
  5
346
330
33F
100
AcDbEntity
  8
0
  0
POLYLINE
  5
347
330
1F
100
AcDbEntity
  8
0
100
AcDbPolyFaceMesh
 66
     1
 10
0.0
 20
0.0
 30
0.0
 70
    64
 71
     4
 72
     2
  0
VERTEX
  5
348
330
347
100
AcDbEntity
  8
0
100
AcDbVertex
100
AcDbPolyFaceMeshVertex
 10
188.4334327424632
 20
67.74601093814945
 30
0.0000000000004512
 70
   192
  0
VERTEX
  5
349
330
347
100
AcDbEntity
  8
0
100
AcDbVertex
100
AcDbPolyFaceMeshVertex
 10
188.4600878459745
 20
65.6142815347113
 30
5.000000000000306
 70
   192
  0
VERTEX
  5
34A
330
347
100
AcDbEntity
  8
0
100
AcDbVertex
100
AcDbPolyFaceMeshVertex
 10
188.534900636063
 20
65.13745980605422
 30
0.000000000000361
 70
   192
  0
VERTEX
  5
34B
330
347
100
AcDbEntity
  8
0
100
AcDbVertex
100
AcDbPolyFaceMeshVertex
 10
188.3586199523741
 20
68.22283266680678
 30
5.000000000000036
 70
   192
  0
VERTEX
  5
34C
330
347
100
AcDbEntity
  8
0
100
AcDbFaceRecord
 10
0.0
 20
0.0
 30
0.0
 70
   128
 71
    -1
 72
     2
 73
     3
  0
VERTEX
  5
34D
330
347
100
AcDbEntity
  8
0
100
AcDbFaceRecord
 10
0.0
 20
0.0
 30
0.0
 70
   128
 71
    -2
 72
     1
 73
     4
  0
SEQEND
  5
34E
330
347
100
AcDbEntity
  8
0
  0
POLYLINE
  5
34F
330
1F
100
AcDbEntity
  8
0
100
AcDbPolyFaceMesh
 66
     1
 10
0.0
 20
0.0
 30
0.0
 70
    64
 71
     4
 72
     2
  0
VERTEX
  5
350
330
34F
100
AcDbEntity
  8
0
100
AcDbVertex
100
AcDbPolyFaceMeshVertex
 10
194.9262814721925
 20
57.44653976957265
 30
0.000000000000361
 70
   192
  0
VERTEX
  5
351
330
34F
100
AcDbEntity
  8
0
100
AcDbVertex
100
AcDbPolyFaceMeshVertex
 10
197.3973974131208
 20
57.34622924408756
 30
5.000000000000306
 70
   192
  0
VERTEX
  5
352
330
34F
100
AcDbEntity
  8
0
100
AcDbVertex
100
AcDbPolyFaceMeshVertex
 10
197.4722102032091
 20
56.86940751543004
 30
0.0000000000002707
 70
   192
  0
VERTEX
  5
353
330
34F
100
AcDbEntity
  8
0
100
AcDbVertex
100
AcDbPolyFaceMeshVertex
 10
194.8514686821042
 20
57.92336149823008
 30
5.000000000000126
 70
   192
  0
VERTEX
  5
354
330
34F
100
AcDbEntity
  8
0
100
AcDbFaceRecord
 10
0.0
 20
0.0
 30
0.0
 70
   128
 71
    -1
 72
     2
 73
     3
  0
VERTEX
  5
355
330
34F
100
AcDbEntity
  8
0
100
AcDbFaceRecord
 10
0.0
 20
0.0
 30
0.0
 70
   128
 71
    -2
 72
     1
 73
     4
  0
SEQEND
  5
356
330
34F
100
AcDbEntity
  8
0
  0
POLYLINE
  5
357
330
1F
100
AcDbEntity
  8
0
100
AcDbPolyFaceMesh
 66
     1
 10
0.0
 20
0.0
 30
0.0
 70
    64
 71
     4
 72
     2
  0
VERTEX
  5
358
330
357
100
AcDbEntity
  8
0
100
AcDbVertex
100
AcDbPolyFaceMeshVertex
 10
191.4836638842405
 20
91.84300816255188
 30
5.000000000000036
 70
   192
  0
VERTEX
  5
359
330
357
100
AcDbEntity
  8
0
100
AcDbVertex
100
AcDbPolyFaceMeshVertex
 10
194.1670278064243
 20
91.46765432749444
 30
0.000000000000361
 70
   192
  0
VERTEX
  5
35A
330
357
100
AcDbEntity
  8
0
100
AcDbVertex
100
AcDbPolyFaceMeshVertex
 10
191.5584766743296
 20
91.36618643389446
 30
0.0000000000002707
 70
   192
  0
VERTEX
  5
35B
330
357
100
AcDbEntity
  8
0
100
AcDbVertex
100
AcDbPolyFaceMeshVertex
 10
194.0922150163356
 20
91.94447605615197
 30
5.000000000000397
 70
   192
  0
VERTEX
  5
35C
330
357
100
AcDbEntity
  8
0
100
AcDbFaceRecord
 10
0.0
 20
0.0
 30
0.0
 70
   128
 71
    -1
 72
     2
 73
     3
  0
VERTEX
  5
35D
330
357
100
AcDbEntity
  8
0
100
AcDbFaceRecord
 10
0.0
 20
0.0
 30
0.0
 70
   128
 71
    -2
 72
     1
 73
     4
  0
SEQEND
  5
35E
330
357
100
AcDbEntity
  8
0
  0
POLYLINE
  5
35F
330
1F
100
AcDbEntity
  8
0
100
AcDbPolyFaceMesh
 66
     1
 10
0.0
 20
0.0
 30
0.0
 70
    64
 71
     4
 72
     2
  0
VERTEX
  5
360
330
35F
100
AcDbEntity
  8
0
100
AcDbVertex
100
AcDbPolyFaceMeshVertex
 10
188.1784814874558
 20
126.4412549746162
 30
5.000000000000126
 70
   192
  0
VERTEX
  5
361
330
35F
100
AcDbEntity
  8
0
100
AcDbVertex
100
AcDbPolyFaceMeshVertex
 10
193.1814059922366
 20
126.8092523970489
 30
0.000000000000361
 70
   192
  0
VERTEX
  5
362
330
35F
100
AcDbEntity
  8
0
100
AcDbVertex
100
AcDbPolyFaceMeshVertex
 10
188.2532942775451
 20
125.9644332459589
 30
0.0000000000002707
 70
   192
  0
VERTEX
  5
363
330
35F
100
AcDbEntity
  8
0
100
AcDbVertex
100
AcDbPolyFaceMeshVertex
 10
198.034704035589
 20
128.1308931257249
 30
5.000000000000036
 70
   192
  0
VERTEX
  5
364
330
35F
100
AcDbEntity
  8
0
100
AcDbFaceRecord
 10
0.0
 20
0.0
 30
0.0
 70
   128
 71
    -1
 72
     2
 73
     3
  0
VERTEX
  5
365
330
35F
100
AcDbEntity
  8
0
100
AcDbFaceRecord
 10
0.0
 20
0.0
 30
0.0
 70
   128
 71
    -2
 72
     1
 73
     4
  0
SEQEND
  5
366
330
35F
100
AcDbEntity
  8
0
  0
POLYLINE
  5
367
330
1F
100
AcDbEntity
  8
0
100
AcDbPolyFaceMesh
 66
     1
 10
0.0
 20
0.0
 30
0.0
 70
    64
 71
     4
 72
     2
  0
VERTEX
  5
368
330
367
100
AcDbEntity
  8
0
100
AcDbVertex
100
AcDbPolyFaceMeshVertex
 10
197.4722102032091
 20
56.86940751543004
 30
0.0000000000002707
 70
   192
  0
VERTEX
  5
369
330
367
100
AcDbEntity
  8
0
100
AcDbVertex
100
AcDbPolyFaceMeshVertex
 10
200.0059485452152
 20
57.44769713768747
 30
5.000000000000126
 70
   192
  0
VERTEX
  5
36A
330
367
100
AcDbEntity
  8
0
100
AcDbVertex
100
AcDbPolyFaceMeshVertex
 10
200.080761335304
 20
56.97087540903004
 30
0.0000000000001805
 70
   192
  0
VERTEX
  5
36B
330
367
100
AcDbEntity
  8
0
100
AcDbVertex
100
AcDbPolyFaceMeshVertex
 10
197.3973974131208
 20
57.34622924408756
 30
5.000000000000306
 70
   192
  0
VERTEX
  5
36C
330
367
100
AcDbEntity
  8
0
100
AcDbFaceRecord
 10
0.0
 20
0.0
 30
0.0
 70
   128
 71
    -1
 72
     2
 73
     3
  0
VERTEX
  5
36D
330
367
100
AcDbEntity
  8
0
100
AcDbFaceRecord
 10
0.0
 20
0.0
 30
0.0
 70
   128
 71
    -2
 72
     1
 73
     4
  0
SEQEND
  5
36E
330
367
100
AcDbEntity
  8
0
  0
POLYLINE
  5
36F
330
1F
100
AcDbEntity
  8
0
100
AcDbPolyFaceMesh
 66
     1
 10
0.0
 20
0.0
 30
0.0
 70
    64
 71
     4
 72
     2
  0
VERTEX
  5
370
330
36F
100
AcDbEntity
  8
0
100
AcDbVertex
100
AcDbPolyFaceMeshVertex
 10
190.7877515042077
 20
111.1800994237601
 30
0.0000000000004512
 70
   192
  0
VERTEX
  5
371
330
36F
100
AcDbEntity
  8
0
100
AcDbVertex
100
AcDbPolyFaceMeshVertex
 10
188.2195336297629
 20
110.8837679803398
 30
5.000000000000126
 70
   192
  0
VERTEX
  5
372
330
36F
100
AcDbEntity
  8
0
100
AcDbVertex
100
AcDbPolyFaceMeshVertex
 10
188.2943464198517
 20
110.4069462516823
 30
0.000000000000361
 70
   192
  0
VERTEX
  5
373
330
36F
100
AcDbEntity
  8
0
100
AcDbVertex
100
AcDbPolyFaceMeshVertex
 10
190.7129387141189
 20
111.6569211524172
 30
5.000000000000126
 70
   192
  0
VERTEX
  5
374
330
36F
100
AcDbEntity
  8
0
100
AcDbFaceRecord
 10
0.0
 20
0.0
 30
0.0
 70
   128
 71
    -1
 72
     2
 73
     3
  0
VERTEX
  5
375
330
36F
100
AcDbEntity
  8
0
100
AcDbFaceRecord
 10
0.0
 20
0.0
 30
0.0
 70
   128
 71
    -2
 72
     1
 73
     4
  0
SEQEND
  5
376
330
36F
100
AcDbEntity
  8
0
  0
POLYLINE
  5
377
330
1F
100
AcDbEntity
  8
0
100
AcDbPolyFaceMesh
 66
     1
 10
0.0
 20
0.0
 30
0.0
 70
    64
 71
     4
 72
     2
  0
VERTEX
  5
378
330
377
100
AcDbEntity
  8
0
100
AcDbVertex
100
AcDbPolyFaceMeshVertex
 10
153.0524994627849
 20
272.1181333168407
 30
0.000000000000361
 70
   192
  0
VERTEX
  5
379
330
377
100
AcDbEntity
  8
0
100
AcDbVertex
100
AcDbPolyFaceMeshVertex
 10
153.7508398447739
 20
270.1015499611415
 30
5.000000000000036
 70
   192
  0
VERTEX
  5
37A
330
377
100
AcDbEntity
  8
0
100
AcDbVertex
100
AcDbPolyFaceMeshVertex
 10
153.8256526348624
 20
269.6247282324845
 30
0.000000000000361
 70
   192
  0
VERTEX
  5
37B
330
377
100
AcDbEntity
  8
0
100
AcDbVertex
100
AcDbPolyFaceMeshVertex
 10
152.9776866726967
 20
272.5949550454978
 30
5.000000000000036
 70
   192
  0
VERTEX
  5
37C
330
377
100
AcDbEntity
  8
0
100
AcDbFaceRecord
 10
0.0
 20
0.0
 30
0.0
 70
   128
 71
    -1
 72
     2
 73
     3
  0
VERTEX
  5
37D
330
377
100
AcDbEntity
  8
0
100
AcDbFaceRecord
 10
0.0
 20
0.0
 30
0.0
 70
   128
 71
    -2
 72
     1
 73
     4
  0
SEQEND
  5
37E
330
377
100
AcDbEntity
  8
0
  0
POLYLINE
  5
37F
330
1F
100
AcDbEntity
  8
0
100
AcDbPolyFaceMesh
 66
     1
 10
0.0
 20
0.0
 30
0.0
 70
    64
 71
     4
 72
     2
  0
VERTEX
  5
380
330
37F
100
AcDbEntity
  8
0
100
AcDbVertex
100
AcDbPolyFaceMeshVertex
 10
159.4418973522071
 20
242.7758342614879
 30
0.0000000000004512
 70
   192
  0
VERTEX
  5
381
330
37F
100
AcDbEntity
  8
0
100
AcDbVertex
100
AcDbPolyFaceMeshVertex
 10
158.7899523079762
 20
240.7067272591289
 30
4.999999999999946
 70
   192
  0
VERTEX
  5
382
330
37F
100
AcDbEntity
  8
0
100
AcDbVertex
100
AcDbPolyFaceMeshVertex
 10
158.8647650980646
 20
240.2299055304714
 30
0.0000000000004512
 70
   192
  0
VERTEX
  5
383
330
37F
100
AcDbEntity
  8
0
100
AcDbVertex
100
AcDbPolyFaceMeshVertex
 10
159.3670845621189
 20
243.2526559901449
 30
5.000000000000036
 70
   192
  0
VERTEX
  5
384
330
37F
100
AcDbEntity
  8
0
100
AcDbFaceRecord
 10
0.0
 20
0.0
 30
0.0
 70
   128
 71
    -1
 72
     2
 73
     3
  0
VERTEX
  5
385
330
37F
100
AcDbEntity
  8
0
100
AcDbFaceRecord
 10
0.0
 20
0.0
 30
0.0
 70
   128
 71
    -2
 72
     1
 73
     4
  0
SEQEND
  5
386
330
37F
100
AcDbEntity
  8
0
  0
POLYLINE
  5
387
330
1F
100
AcDbEntity
  8
0
100
AcDbPolyFaceMesh
 66
     1
 10
0.0
 20
0.0
 30
0.0
 70
    64
 71
     4
 72
     2
  0
VERTEX
  5
388
330
387
100
AcDbEntity
  8
0
100
AcDbVertex
100
AcDbPolyFaceMeshVertex
 10
188.2195336297629
 20
110.8837679803398
 30
5.000000000000126
 70
   192
  0
VERTEX
  5
389
330
387
100
AcDbEntity
  8
0
100
AcDbVertex
100
AcDbPolyFaceMeshVertex
 10
186.0860088191868
 20
109.0147969121088
 30
0.0000000000004512
 70
   192
  0
VERTEX
  5
38A
330
387
100
AcDbEntity
  8
0
100
AcDbVertex
100
AcDbPolyFaceMeshVertex
 10
188.2943464198517
 20
110.4069462516823
 30
0.000000000000361
 70
   192
  0
VERTEX
  5
38B
330
387
100
AcDbEntity
  8
0
100
AcDbVertex
100
AcDbPolyFaceMeshVertex
 10
186.0111960290976
 20
109.4916186407663
 30
5.000000000000036
 70
   192
  0
VERTEX
  5
38C
330
387
100
AcDbEntity
  8
0
100
AcDbFaceRecord
 10
0.0
 20
0.0
 30
0.0
 70
   128
 71
    -1
 72
     2
 73
     3
  0
VERTEX
  5
38D
330
387
100
AcDbEntity
  8
0
100
AcDbFaceRecord
 10
0.0
 20
0.0
 30
0.0
 70
   128
 71
    -2
 72
     1
 73
     4
  0
SEQEND
  5
38E
330
387
100
AcDbEntity
  8
0
  0
POLYLINE
  5
38F
330
1F
100
AcDbEntity
  8
0
100
AcDbPolyFaceMesh
 66
     1
 10
0.0
 20
0.0
 30
0.0
 70
    64
 71
     4
 72
     2
  0
VERTEX
  5
390
330
38F
100
AcDbEntity
  8
0
100
AcDbVertex
100
AcDbPolyFaceMeshVertex
 10
178.872736089955
 20
129.4292749579619
 30
0.000000000000361
 70
   192
  0
VERTEX
  5
391
330
38F
100
AcDbEntity
  8
0
100
AcDbVertex
100
AcDbPolyFaceMeshVertex
 10
180.7141961300796
 20
128.1333211276803
 30
5.000000000000397
 70
   192
  0
VERTEX
  5
392
330
38F
100
AcDbEntity
  8
0
100
AcDbVertex
100
AcDbPolyFaceMeshVertex
 10
180.7890089201692
 20
127.6564993990228
 30
0.0000000000002707
 70
   192
  0
VERTEX
  5
393
330
38F
100
AcDbEntity
  8
0
100
AcDbVertex
100
AcDbPolyFaceMeshVertex
 10
178.7979232998653
 20
129.9060966866193
 30
5.000000000000126
 70
   192
  0
VERTEX
  5
394
330
38F
100
AcDbEntity
  8
0
100
AcDbFaceRecord
 10
0.0
 20
0.0
 30
0.0
 70
   128
 71
    -1
 72
     2
 73
     3
  0
VERTEX
  5
395
330
38F
100
AcDbEntity
  8
0
100
AcDbFaceRecord
 10
0.0
 20
0.0
 30
0.0
 70
   128
 71
    -2
 72
     1
 73
     4
  0
SEQEND
  5
396
330
38F
100
AcDbEntity
  8
0
  0
POLYLINE
  5
397
330
1F
100
AcDbEntity
  8
0
100
AcDbPolyFaceMesh
 66
     1
 10
0.0
 20
0.0
 30
0.0
 70
    64
 71
     4
 72
     2
  0
VERTEX
  5
398
330
397
100
AcDbEntity
  8
0
100
AcDbVertex
100
AcDbPolyFaceMeshVertex
 10
170.5120936909061
 20
229.4547700013521
 30
0.0000000000004512
 70
   192
  0
VERTEX
  5
399
330
397
100
AcDbEntity
  8
0
100
AcDbVertex
100
AcDbPolyFaceMeshVertex
 10
180.2935034489498
 20
231.621229881118
 30
5.000000000000306
 70
   192
  0
VERTEX
  5
39A
330
397
100
AcDbEntity
  8
0
100
AcDbVertex
100
AcDbPolyFaceMeshVertex
 10
175.4402054055969
 20
230.2995891524419
 30
0.000000000000361
 70
   192
  0
VERTEX
  5
39B
330
397
100
AcDbEntity
  8
0
100
AcDbVertex
100
AcDbPolyFaceMeshVertex
 10
170.437280900817
 20
229.9315917300092
 30
5.000000000000126
 70
   192
  0
VERTEX
  5
39C
330
397
100
AcDbEntity
  8
0
100
AcDbFaceRecord
 10
0.0
 20
0.0
 30
0.0
 70
   128
 71
    -1
 72
     2
 73
     3
  0
VERTEX
  5
39D
330
397
100
AcDbEntity
  8
0
100
AcDbFaceRecord
 10
0.0
 20
0.0
 30
0.0
 70
   128
 71
    -2
 72
     1
 73
     4
  0
SEQEND
  5
39E
330
397
100
AcDbEntity
  8
0
  0
POLYLINE
  5
39F
330
1F
100
AcDbEntity
  8
0
100
AcDbPolyFaceMesh
 66
     1
 10
0.0
 20
0.0
 30
0.0
 70
    64
 71
     4
 72
     2
  0
VERTEX
  5
3A0
330
39F
100
AcDbEntity
  8
0
100
AcDbVertex
100
AcDbPolyFaceMeshVertex
 10
176.6059656847044
 20
136.7395687750783
 30
0.000000000000361
 70
   192
  0
VERTEX
  5
3A1
330
39F
100
AcDbEntity
  8
0
100
AcDbVertex
100
AcDbPolyFaceMeshVertex
 10
176.6326207882148
 20
134.6078393716404
 30
5.000000000000126
 70
   192
  0
VERTEX
  5
3A2
330
39F
100
AcDbEntity
  8
0
100
AcDbVertex
100
AcDbPolyFaceMeshVertex
 10
176.7074335783043
 20
134.1310176429832
 30
0.0000000000001805
 70
   192
  0
VERTEX
  5
3A3
330
39F
100
AcDbEntity
  8
0
100
AcDbVertex
100
AcDbPolyFaceMeshVertex
 10
176.5311528946149
 20
137.2163905037357
 30
5.000000000000306
 70
   192
  0
VERTEX
  5
3A4
330
39F
100
AcDbEntity
  8
0
100
AcDbFaceRecord
 10
0.0
 20
0.0
 30
0.0
 70
   128
 71
    -1
 72
     2
 73
     3
  0
VERTEX
  5
3A5
330
39F
100
AcDbEntity
  8
0
100
AcDbFaceRecord
 10
0.0
 20
0.0
 30
0.0
 70
   128
 71
    -2
 72
     1
 73
     4
  0
SEQEND
  5
3A6
330
39F
100
AcDbEntity
  8
0
  0
POLYLINE
  5
3A7
330
1F
100
AcDbEntity
  8
0
100
AcDbPolyFaceMesh
 66
     1
 10
0.0
 20
0.0
 30
0.0
 70
    64
 71
     4
 72
     2
  0
VERTEX
  5
3A8
330
3A7
100
AcDbEntity
  8
0
100
AcDbVertex
100
AcDbPolyFaceMeshVertex
 10
179.6561968264809
 20
160.8365659994803
 30
5.000000000000036
 70
   192
  0
VERTEX
  5
3A9
330
3A7
100
AcDbEntity
  8
0
100
AcDbVertex
100
AcDbPolyFaceMeshVertex
 10
182.3395607486653
 20
160.4612121644233
 30
0.000000000000361
 70
   192
  0
VERTEX
  5
3AA
330
3A7
100
AcDbEntity
  8
0
100
AcDbVertex
100
AcDbPolyFaceMeshVertex
 10
179.7310096165703
 20
160.3597442708234
 30
0.0000000000001805
 70
   192
  0
VERTEX
  5
3AB
330
3A7
100
AcDbEntity
  8
0
100
AcDbVertex
100
AcDbPolyFaceMeshVertex
 10
182.2647479585769
 20
160.9380338930806
 30
5.000000000000306
 70
   192
  0
VERTEX
  5
3AC
330
3A7
100
AcDbEntity
  8
0
100
AcDbFaceRecord
 10
0.0
 20
0.0
 30
0.0
 70
   128
 71
    -1
 72
     2
 73
     3
  0
VERTEX
  5
3AD
330
3A7
100
AcDbEntity
  8
0
100
AcDbFaceRecord
 10
0.0
 20
0.0
 30
0.0
 70
   128
 71
    -2
 72
     1
 73
     4
  0
SEQEND
  5
3AE
330
3A7
100
AcDbEntity
  8
0
  0
POLYLINE
  5
3AF
330
1F
100
AcDbEntity
  8
0
100
AcDbPolyFaceMesh
 66
     1
 10
0.0
 20
0.0
 30
0.0
 70
    64
 71
     4
 72
     2
  0
VERTEX
  5
3B0
330
3AF
100
AcDbEntity
  8
0
100
AcDbVertex
100
AcDbPolyFaceMeshVertex
 10
194.6554277333715
 20
147.8433382219901
 30
5.000000000000306
 70
   192
  0
VERTEX
  5
3B1
330
3AF
100
AcDbEntity
  8
0
100
AcDbVertex
100
AcDbPolyFaceMeshVertex
 10
184.874017975328
 20
145.6768783422244
 30
0.000000000000361
 70
   192
  0
VERTEX
  5
3B2
330
3AF
100
AcDbEntity
  8
0
100
AcDbVertex
100
AcDbPolyFaceMeshVertex
 10
189.8021296900195
 20
146.5216974933143
 30
0.000000000000361
 70
   192
  0
VERTEX
  5
3B3
330
3AF
100
AcDbEntity
  8
0
100
AcDbVertex
100
AcDbPolyFaceMeshVertex
 10
184.7992051852395
 20
146.1537000708817
 30
5.000000000000126
 70
   192
  0
VERTEX
  5
3B4
330
3AF
100
AcDbEntity
  8
0
100
AcDbFaceRecord
 10
0.0
 20
0.0
 30
0.0
 70
   128
 71
    -1
 72
     2
 73
     3
  0
VERTEX
  5
3B5
330
3AF
100
AcDbEntity
  8
0
100
AcDbFaceRecord
 10
0.0
 20
0.0
 30
0.0
 70
   128
 71
    -2
 72
     1
 73
     4
  0
SEQEND
  5
3B6
330
3AF
100
AcDbEntity
  8
0
  0
POLYLINE
  5
3B7
330
1F
100
AcDbEntity
  8
0
100
AcDbPolyFaceMesh
 66
     1
 10
0.0
 20
0.0
 30
0.0
 70
    64
 71
     4
 72
     2
  0
VERTEX
  5
3B8
330
3B7
100
AcDbEntity
  8
0
100
AcDbVertex
100
AcDbPolyFaceMeshVertex
 10
177.183097938847
 20
139.2854975060947
 30
0.000000000000361
 70
   192
  0
VERTEX
  5
3B9
330
3B7
100
AcDbEntity
  8
0
100
AcDbVertex
100
AcDbPolyFaceMeshVertex
 10
176.5311528946149
 20
137.2163905037357
 30
5.000000000000306
 70
   192
  0
VERTEX
  5
3BA
330
3B7
100
AcDbEntity
  8
0
100
AcDbVertex
100
AcDbPolyFaceMeshVertex
 10
176.6059656847044
 20
136.7395687750783
 30
0.000000000000361
 70
   192
  0
VERTEX
  5
3BB
330
3B7
100
AcDbEntity
  8
0
100
AcDbVertex
100
AcDbPolyFaceMeshVertex
 10
177.1082851487572
 20
139.7623192347518
 30
5.000000000000306
 70
   192
  0
VERTEX
  5
3BC
330
3B7
100
AcDbEntity
  8
0
100
AcDbFaceRecord
 10
0.0
 20
0.0
 30
0.0
 70
   128
 71
    -1
 72
     2
 73
     3
  0
VERTEX
  5
3BD
330
3B7
100
AcDbEntity
  8
0
100
AcDbFaceRecord
 10
0.0
 20
0.0
 30
0.0
 70
   128
 71
    -2
 72
     1
 73
     4
  0
SEQEND
  5
3BE
330
3B7
100
AcDbEntity
  8
0
  0
POLYLINE
  5
3BF
330
1F
100
AcDbEntity
  8
0
100
AcDbPolyFaceMesh
 66
     1
 10
0.0
 20
0.0
 30
0.0
 70
    64
 71
     4
 72
     2
  0
VERTEX
  5
3C0
330
3BF
100
AcDbEntity
  8
0
100
AcDbVertex
100
AcDbPolyFaceMeshVertex
 10
185.6447431454498
 20
125.862965352359
 30
0.0000000000004512
 70
   192
  0
VERTEX
  5
3C1
330
3BF
100
AcDbEntity
  8
0
100
AcDbVertex
100
AcDbPolyFaceMeshVertex
 10
188.1784814874558
 20
126.4412549746162
 30
5.000000000000126
 70
   192
  0
VERTEX
  5
3C2
330
3BF
100
AcDbEntity
  8
0
100
AcDbVertex
100
AcDbPolyFaceMeshVertex
 10
188.2532942775451
 20
125.9644332459589
 30
0.0000000000002707
 70
   192
  0
VERTEX
  5
3C3
330
3BF
100
AcDbEntity
  8
0
100
AcDbVertex
100
AcDbPolyFaceMeshVertex
 10
185.5699303553614
 20
126.3397870810161
 30
5.000000000000306
 70
   192
  0
VERTEX
  5
3C4
330
3BF
100
AcDbEntity
  8
0
100
AcDbFaceRecord
 10
0.0
 20
0.0
 30
0.0
 70
   128
 71
    -1
 72
     2
 73
     3
  0
VERTEX
  5
3C5
330
3BF
100
AcDbEntity
  8
0
100
AcDbFaceRecord
 10
0.0
 20
0.0
 30
0.0
 70
   128
 71
    -2
 72
     1
 73
     4
  0
SEQEND
  5
3C6
330
3BF
100
AcDbEntity
  8
0
  0
POLYLINE
  5
3C7
330
1F
100
AcDbEntity
  8
0
100
AcDbPolyFaceMesh
 66
     1
 10
0.0
 20
0.0
 30
0.0
 70
    64
 71
     4
 72
     2
  0
VERTEX
  5
3C8
330
3C7
100
AcDbEntity
  8
0
100
AcDbVertex
100
AcDbPolyFaceMeshVertex
 10
180.1722752903069
 20
143.5115758305733
 30
0.0000000000002707
 70
   192
  0
VERTEX
  5
3C9
330
3C7
100
AcDbEntity
  8
0
100
AcDbVertex
100
AcDbPolyFaceMeshVertex
 10
178.324686941279
 20
142.0721247290168
 30
5.000000000000126
 70
   192
  0
VERTEX
  5
3CA
330
3C7
100
AcDbEntity
  8
0
100
AcDbVertex
100
AcDbPolyFaceMeshVertex
 10
178.3994997313684
 20
141.5953030003598
 30
0.000000000000361
 70
   192
  0
VERTEX
  5
3CB
330
3C7
100
AcDbEntity
  8
0
100
AcDbVertex
100
AcDbPolyFaceMeshVertex
 10
180.0974625002178
 20
143.9883975592307
 30
5.000000000000217
 70
   192
  0
VERTEX
  5
3CC
330
3C7
100
AcDbEntity
  8
0
100
AcDbFaceRecord
 10
0.0
 20
0.0
 30
0.0
 70
   128
 71
    -1
 72
     2
 73
     3
  0
VERTEX
  5
3CD
330
3C7
100
AcDbEntity
  8
0
100
AcDbFaceRecord
 10
0.0
 20
0.0
 30
0.0
 70
   128
 71
    -2
 72
     1
 73
     4
  0
SEQEND
  5
3CE
330
3C7
100
AcDbEntity
  8
0
  0
POLYLINE
  5
3CF
330
1F
100
AcDbEntity
  8
0
100
AcDbPolyFaceMesh
 66
     1
 10
0.0
 20
0.0
 30
0.0
 70
    64
 71
     4
 72
     2
  0
VERTEX
  5
3D0
330
3CF
100
AcDbEntity
  8
0
100
AcDbVertex
100
AcDbPolyFaceMeshVertex
 10
182.6211671071838
 20
99.63423872451882
 30
0.0000000000005414
 70
   192
  0
VERTEX
  5
3D1
330
3CF
100
AcDbEntity
  8
0
100
AcDbVertex
100
AcDbPolyFaceMeshVertex
 10
183.3195074891721
 20
97.61765536881995
 30
5.000000000000217
 70
   192
  0
VERTEX
  5
3D2
330
3CF
100
AcDbEntity
  8
0
100
AcDbVertex
100
AcDbPolyFaceMeshVertex
 10
183.3943202792612
 20
97.14083364016253
 30
0.0000000000002707
 70
   192
  0
VERTEX
  5
3D3
330
3CF
100
AcDbEntity
  8
0
100
AcDbVertex
100
AcDbPolyFaceMeshVertex
 10
182.5463543170949
 20
100.1110604531762
 30
5.000000000000126
 70
   192
  0
VERTEX
  5
3D4
330
3CF
100
AcDbEntity
  8
0
100
AcDbFaceRecord
 10
0.0
 20
0.0
 30
0.0
 70
   128
 71
    -1
 72
     2
 73
     3
  0
VERTEX
  5
3D5
330
3CF
100
AcDbEntity
  8
0
100
AcDbFaceRecord
 10
0.0
 20
0.0
 30
0.0
 70
   128
 71
    -2
 72
     1
 73
     4
  0
SEQEND
  5
3D6
330
3CF
100
AcDbEntity
  8
0
  0
POLYLINE
  5
3D7
330
1F
100
AcDbEntity
  8
0
100
AcDbPolyFaceMesh
 66
     1
 10
0.0
 20
0.0
 30
0.0
 70
    64
 71
     4
 72
     2
  0
VERTEX
  5
3D8
330
3D7
100
AcDbEntity
  8
0
100
AcDbVertex
100
AcDbPolyFaceMeshVertex
 10
194.0922150163356
 20
91.94447605615197
 30
5.000000000000397
 70
   192
  0
VERTEX
  5
3D9
330
3D7
100
AcDbEntity
  8
0
100
AcDbVertex
100
AcDbPolyFaceMeshVertex
 10
199.0951395211158
 20
92.31247347858452
 30
0.000000000000361
 70
   192
  0
VERTEX
  5
3DA
330
3D7
100
AcDbEntity
  8
0
100
AcDbVertex
100
AcDbPolyFaceMeshVertex
 10
194.1670278064243
 20
91.46765432749444
 30
0.000000000000361
 70
   192
  0
VERTEX
  5
3DB
330
3D7
100
AcDbEntity
  8
0
100
AcDbVertex
100
AcDbPolyFaceMeshVertex
 10
203.9484375644685
 20
93.63411420726024
 30
5.000000000000036
 70
   192
  0
VERTEX
  5
3DC
330
3D7
100
AcDbEntity
  8
0
100
AcDbFaceRecord
 10
0.0
 20
0.0
 30
0.0
 70
   128
 71
    -1
 72
     2
 73
     3
  0
VERTEX
  5
3DD
330
3D7
100
AcDbEntity
  8
0
100
AcDbFaceRecord
 10
0.0
 20
0.0
 30
0.0
 70
   128
 71
    -2
 72
     1
 73
     4
  0
SEQEND
  5
3DE
330
3D7
100
AcDbEntity
  8
0
  0
POLYLINE
  5
3DF
330
1F
100
AcDbEntity
  8
0
100
AcDbPolyFaceMesh
 66
     1
 10
0.0
 20
0.0
 30
0.0
 70
    64
 71
     4
 72
     2
  0
VERTEX
  5
3E0
330
3DF
100
AcDbEntity
  8
0
100
AcDbVertex
100
AcDbPolyFaceMeshVertex
 10
184.874017975328
 20
145.6768783422244
 30
0.000000000000361
 70
   192
  0
VERTEX
  5
3E1
330
3DF
100
AcDbEntity
  8
0
100
AcDbVertex
100
AcDbPolyFaceMeshVertex
 10
182.3058001008833
 20
145.3805468988044
 30
5.000000000000217
 70
   192
  0
VERTEX
  5
3E2
330
3DF
100
AcDbEntity
  8
0
100
AcDbVertex
100
AcDbPolyFaceMeshVertex
 10
182.3806128909725
 20
144.9037251701467
 30
0.0000000000002707
 70
   192
  0
VERTEX
  5
3E3
330
3DF
100
AcDbEntity
  8
0
100
AcDbVertex
100
AcDbPolyFaceMeshVertex
 10
184.7992051852395
 20
146.1537000708817
 30
5.000000000000126
 70
   192
  0
VERTEX
  5
3E4
330
3DF
100
AcDbEntity
  8
0
100
AcDbFaceRecord
 10
0.0
 20
0.0
 30
0.0
 70
   128
 71
    -1
 72
     2
 73
     3
  0
VERTEX
  5
3E5
330
3DF
100
AcDbEntity
  8
0
100
AcDbFaceRecord
 10
0.0
 20
0.0
 30
0.0
 70
   128
 71
    -2
 72
     1
 73
     4
  0
SEQEND
  5
3E6
330
3DF
100
AcDbEntity
  8
0
  0
POLYLINE
  5
3E7
330
1F
100
AcDbEntity
  8
0
100
AcDbPolyFaceMesh
 66
     1
 10
0.0
 20
0.0
 30
0.0
 70
    64
 71
     4
 72
     2
  0
VERTEX
  5
3E8
330
3E7
100
AcDbEntity
  8
0
100
AcDbVertex
100
AcDbPolyFaceMeshVertex
 10
191.999742348066
 20
74.51801799364435
 30
0.0000000000002707
 70
   192
  0
VERTEX
  5
3E9
330
3E7
100
AcDbEntity
  8
0
100
AcDbVertex
100
AcDbPolyFaceMeshVertex
 10
190.1521539990382
 20
73.07856689208826
 30
5.000000000000217
 70
   192
  0
VERTEX
  5
3EA
330
3E7
100
AcDbEntity
  8
0
100
AcDbVertex
100
AcDbPolyFaceMeshVertex
 10
190.2269667891274
 20
72.60174516343092
 30
0.0000000000002707
 70
   192
  0
VERTEX
  5
3EB
330
3E7
100
AcDbEntity
  8
0
100
AcDbVertex
100
AcDbPolyFaceMeshVertex
 10
191.9249295579774
 20
74.99483972230186
 30
5.000000000000217
 70
   192
  0
VERTEX
  5
3EC
330
3E7
100
AcDbEntity
  8
0
100
AcDbFaceRecord
 10
0.0
 20
0.0
 30
0.0
 70
   128
 71
    -1
 72
     2
 73
     3
  0
VERTEX
  5
3ED
330
3E7
100
AcDbEntity
  8
0
100
AcDbFaceRecord
 10
0.0
 20
0.0
 30
0.0
 70
   128
 71
    -2
 72
     1
 73
     4
  0
SEQEND
  5
3EE
330
3E7
100
AcDbEntity
  8
0
  0
POLYLINE
  5
3EF
330
1F
100
AcDbEntity
  8
0
100
AcDbPolyFaceMesh
 66
     1
 10
0.0
 20
0.0
 30
0.0
 70
    64
 71
     4
 72
     2
  0
VERTEX
  5
3F0
330
3EF
100
AcDbEntity
  8
0
100
AcDbVertex
100
AcDbPolyFaceMeshVertex
 10
176.7074335783043
 20
134.1310176429832
 30
0.0000000000001805
 70
   192
  0
VERTEX
  5
3F1
330
3EF
100
AcDbEntity
  8
0
100
AcDbVertex
100
AcDbPolyFaceMeshVertex
 10
177.405773960292
 20
132.1144342872844
 30
5.000000000000126
 70
   192
  0
VERTEX
  5
3F2
330
3EF
100
AcDbEntity
  8
0
100
AcDbVertex
100
AcDbPolyFaceMeshVertex
 10
177.4805867503812
 20
131.6376125586268
 30
0.0000000000002707
 70
   192
  0
VERTEX
  5
3F3
330
3EF
100
AcDbEntity
  8
0
100
AcDbVertex
100
AcDbPolyFaceMeshVertex
 10
176.6326207882148
 20
134.6078393716404
 30
5.000000000000126
 70
   192
  0
VERTEX
  5
3F4
330
3EF
100
AcDbEntity
  8
0
100
AcDbFaceRecord
 10
0.0
 20
0.0
 30
0.0
 70
   128
 71
    -1
 72
     2
 73
     3
  0
VERTEX
  5
3F5
330
3EF
100
AcDbEntity
  8
0
100
AcDbFaceRecord
 10
0.0
 20
0.0
 30
0.0
 70
   128
 71
    -2
 72
     1
 73
     4
  0
SEQEND
  5
3F6
330
3EF
100
AcDbEntity
  8
0
  0
POLYLINE
  5
3F7
330
1F
100
AcDbEntity
  8
0
100
AcDbPolyFaceMesh
 66
     1
 10
0.0
 20
0.0
 30
0.0
 70
    64
 71
     4
 72
     2
  0
VERTEX
  5
3F8
330
3F7
100
AcDbEntity
  8
0
100
AcDbVertex
100
AcDbPolyFaceMeshVertex
 10
176.4258272197862
 20
194.9579910828876
 30
0.000000000000361
 70
   192
  0
VERTEX
  5
3F9
330
3F7
100
AcDbEntity
  8
0
100
AcDbVertex
100
AcDbPolyFaceMeshVertex
 10
186.2072369778302
 20
197.1244509626533
 30
5.000000000000306
 70
   192
  0
VERTEX
  5
3FA
330
3F7
100
AcDbEntity
  8
0
100
AcDbVertex
100
AcDbPolyFaceMeshVertex
 10
181.353938934477
 20
195.8028102339774
 30
0.0000000000002707
 70
   192
  0
VERTEX
  5
3FB
330
3F7
100
AcDbEntity
  8
0
100
AcDbVertex
100
AcDbPolyFaceMeshVertex
 10
176.3510144296966
 20
195.4348128115447
 30
5.000000000000036
 70
   192
  0
VERTEX
  5
3FC
330
3F7
100
AcDbEntity
  8
0
100
AcDbFaceRecord
 10
0.0
 20
0.0
 30
0.0
 70
   128
 71
    -1
 72
     2
 73
     3
  0
VERTEX
  5
3FD
330
3F7
100
AcDbEntity
  8
0
100
AcDbFaceRecord
 10
0.0
 20
0.0
 30
0.0
 70
   128
 71
    -2
 72
     1
 73
     4
  0
SEQEND
  5
3FE
330
3F7
100
AcDbEntity
  8
0
  0
POLYLINE
  5
3FF
330
1F
100
AcDbEntity
  8
0
100
AcDbPolyFaceMesh
 66
     1
 10
0.0
 20
0.0
 30
0.0
 70
    64
 71
     4
 72
     2
  0
VERTEX
  5
400
330
3FF
100
AcDbEntity
  8
0
100
AcDbVertex
100
AcDbPolyFaceMeshVertex
 10
177.1850808855541
 20
160.9368765249658
 30
0.000000000000361
 70
   192
  0
VERTEX
  5
401
330
3FF
100
AcDbEntity
  8
0
100
AcDbVertex
100
AcDbPolyFaceMeshVertex
 10
179.6561968264809
 20
160.8365659994803
 30
5.000000000000036
 70
   192
  0
VERTEX
  5
402
330
3FF
100
AcDbEntity
  8
0
100
AcDbVertex
100
AcDbPolyFaceMeshVertex
 10
179.7310096165703
 20
160.3597442708234
 30
0.0000000000001805
 70
   192
  0
VERTEX
  5
403
330
3FF
100
AcDbEntity
  8
0
100
AcDbVertex
100
AcDbPolyFaceMeshVertex
 10
177.1102680954645
 20
161.4136982536229
 30
5.000000000000217
 70
   192
  0
VERTEX
  5
404
330
3FF
100
AcDbEntity
  8
0
100
AcDbFaceRecord
 10
0.0
 20
0.0
 30
0.0
 70
   128
 71
    -1
 72
     2
 73
     3
  0
VERTEX
  5
405
330
3FF
100
AcDbEntity
  8
0
100
AcDbFaceRecord
 10
0.0
 20
0.0
 30
0.0
 70
   128
 71
    -2
 72
     1
 73
     4
  0
SEQEND
  5
406
330
3FF
100
AcDbEntity
  8
0
  0
POLYLINE
  5
407
330
1F
100
AcDbEntity
  8
0
100
AcDbPolyFaceMesh
 66
     1
 10
0.0
 20
0.0
 30
0.0
 70
    64
 71
     4
 72
     2
  0
VERTEX
  5
408
330
407
100
AcDbEntity
  8
0
100
AcDbVertex
100
AcDbPolyFaceMeshVertex
 10
172.8841897709862
 20
164.4028756050835
 30
5.000000000000306
 70
   192
  0
VERTEX
  5
409
330
407
100
AcDbEntity
  8
0
100
AcDbVertex
100
AcDbPolyFaceMeshVertex
 10
174.8752753912889
 20
162.1532783174873
 30
0.000000000000361
 70
   192
  0
VERTEX
  5
40A
330
407
100
AcDbEntity
  8
0
100
AcDbVertex
100
AcDbPolyFaceMeshVertex
 10
172.9590025610752
 20
163.9260538764263
 30
0.000000000000361
 70
   192
  0
VERTEX
  5
40B
330
407
100
AcDbEntity
  8
0
100
AcDbVertex
100
AcDbPolyFaceMeshVertex
 10
174.8004626011997
 20
162.6301000461447
 30
4.999999999999946
 70
   192
  0
VERTEX
  5
40C
330
407
100
AcDbEntity
  8
0
100
AcDbFaceRecord
 10
0.0
 20
0.0
 30
0.0
 70
   128
 71
    -1
 72
     2
 73
     3
  0
VERTEX
  5
40D
330
407
100
AcDbEntity
  8
0
100
AcDbFaceRecord
 10
0.0
 20
0.0
 30
0.0
 70
   128
 71
    -2
 72
     1
 73
     4
  0
SEQEND
  5
40E
330
407
100
AcDbEntity
  8
0
  0
POLYLINE
  5
40F
330
1F
100
AcDbEntity
  8
0
100
AcDbPolyFaceMesh
 66
     1
 10
0.0
 20
0.0
 30
0.0
 70
    64
 71
     4
 72
     2
  0
VERTEX
  5
410
330
40F
100
AcDbEntity
  8
0
100
AcDbVertex
100
AcDbPolyFaceMeshVertex
 10
190.2269667891274
 20
72.60174516343092
 30
0.0000000000002707
 70
   192
  0
VERTEX
  5
411
330
40F
100
AcDbEntity
  8
0
100
AcDbVertex
100
AcDbPolyFaceMeshVertex
 10
188.9357522065169
 20
70.76876139782334
 30
5.000000000000306
 70
   192
  0
VERTEX
  5
412
330
40F
100
AcDbEntity
  8
0
100
AcDbVertex
100
AcDbPolyFaceMeshVertex
 10
189.0105649966056
 20
70.29193966916591
 30
0.000000000000361
 70
   192
  0
VERTEX
  5
413
330
40F
100
AcDbEntity
  8
0
100
AcDbVertex
100
AcDbPolyFaceMeshVertex
 10
190.1521539990382
 20
73.07856689208826
 30
5.000000000000217
 70
   192
  0
VERTEX
  5
414
330
40F
100
AcDbEntity
  8
0
100
AcDbFaceRecord
 10
0.0
 20
0.0
 30
0.0
 70
   128
 71
    -1
 72
     2
 73
     3
  0
VERTEX
  5
415
330
40F
100
AcDbEntity
  8
0
100
AcDbFaceRecord
 10
0.0
 20
0.0
 30
0.0
 70
   128
 71
    -2
 72
     1
 73
     4
  0
SEQEND
  5
416
330
40F
100
AcDbEntity
  8
0
  0
POLYLINE
  5
417
330
1F
100
AcDbEntity
  8
0
100
AcDbPolyFaceMesh
 66
     1
 10
0.0
 20
0.0
 30
0.0
 70
    64
 71
     4
 72
     2
  0
VERTEX
  5
418
330
417
100
AcDbEntity
  8
0
100
AcDbVertex
100
AcDbPolyFaceMeshVertex
 10
176.4668793620926
 20
179.4005040886113
 30
0.000000000000361
 70
   192
  0
VERTEX
  5
419
330
417
100
AcDbEntity
  8
0
100
AcDbVertex
100
AcDbPolyFaceMeshVertex
 10
174.1837289713381
 20
178.485176477695
 30
5.000000000000306
 70
   192
  0
VERTEX
  5
41A
330
417
100
AcDbEntity
  8
0
100
AcDbVertex
100
AcDbPolyFaceMeshVertex
 10
174.2585417614278
 20
178.0083547490376
 30
0.0000000000001805
 70
   192
  0
VERTEX
  5
41B
330
417
100
AcDbEntity
  8
0
100
AcDbVertex
100
AcDbPolyFaceMeshVertex
 10
176.3920665720034
 20
179.8773258172685
 30
5.000000000000217
 70
   192
  0
VERTEX
  5
41C
330
417
100
AcDbEntity
  8
0
100
AcDbFaceRecord
 10
0.0
 20
0.0
 30
0.0
 70
   128
 71
    -1
 72
     2
 73
     3
  0
VERTEX
  5
41D
330
417
100
AcDbEntity
  8
0
100
AcDbFaceRecord
 10
0.0
 20
0.0
 30
0.0
 70
   128
 71
    -2
 72
     1
 73
     4
  0
SEQEND
  5
41E
330
417
100
AcDbEntity
  8
0
  0
POLYLINE
  5
41F
330
1F
100
AcDbEntity
  8
0
100
AcDbPolyFaceMesh
 66
     1
 10
0.0
 20
0.0
 30
0.0
 70
    64
 71
     4
 72
     2
  0
VERTEX
  5
420
330
41F
100
AcDbEntity
  8
0
100
AcDbVertex
100
AcDbPolyFaceMeshVertex
 10
182.3058001008833
 20
145.3805468988044
 30
5.000000000000217
 70
   192
  0
VERTEX
  5
421
330
41F
100
AcDbEntity
  8
0
100
AcDbVertex
100
AcDbPolyFaceMeshVertex
 10
180.1722752903069
 20
143.5115758305733
 30
0.0000000000002707
 70
   192
  0
VERTEX
  5
422
330
41F
100
AcDbEntity
  8
0
100
AcDbVertex
100
AcDbPolyFaceMeshVertex
 10
182.3806128909725
 20
144.9037251701467
 30
0.0000000000002707
 70
   192
  0
VERTEX
  5
423
330
41F
100
AcDbEntity
  8
0
100
AcDbVertex
100
AcDbPolyFaceMeshVertex
 10
180.0974625002178
 20
143.9883975592307
 30
5.000000000000217
 70
   192
  0
VERTEX
  5
424
330
41F
100
AcDbEntity
  8
0
100
AcDbFaceRecord
 10
0.0
 20
0.0
 30
0.0
 70
   128
 71
    -1
 72
     2
 73
     3
  0
VERTEX
  5
425
330
41F
100
AcDbEntity
  8
0
100
AcDbFaceRecord
 10
0.0
 20
0.0
 30
0.0
 70
   128
 71
    -2
 72
     1
 73
     4
  0
SEQEND
  5
426
330
41F
100
AcDbEntity
  8
0
  0
POLYLINE
  5
427
330
1F
100
AcDbEntity
  8
0
100
AcDbPolyFaceMesh
 66
     1
 10
0.0
 20
0.0
 30
0.0
 70
    64
 71
     4
 72
     2
  0
VERTEX
  5
428
330
427
100
AcDbEntity
  8
0
100
AcDbVertex
100
AcDbPolyFaceMeshVertex
 10
189.0125479433132
 20
91.94331868803724
 30
0.000000000000361
 70
   192
  0
VERTEX
  5
429
330
427
100
AcDbEntity
  8
0
100
AcDbVertex
100
AcDbPolyFaceMeshVertex
 10
191.4836638842405
 20
91.84300816255188
 30
5.000000000000036
 70
   192
  0
VERTEX
  5
42A
330
427
100
AcDbEntity
  8
0
100
AcDbVertex
100
AcDbPolyFaceMeshVertex
 10
191.5584766743296
 20
91.36618643389446
 30
0.0000000000002707
 70
   192
  0
VERTEX
  5
42B
330
427
100
AcDbEntity
  8
0
100
AcDbVertex
100
AcDbPolyFaceMeshVertex
 10
188.9377351532242
 20
92.4201404166944
 30
5.000000000000217
 70
   192
  0
VERTEX
  5
42C
330
427
100
AcDbEntity
  8
0
100
AcDbFaceRecord
 10
0.0
 20
0.0
 30
0.0
 70
   128
 71
    -1
 72
     2
 73
     3
  0
VERTEX
  5
42D
330
427
100
AcDbEntity
  8
0
100
AcDbFaceRecord
 10
0.0
 20
0.0
 30
0.0
 70
   128
 71
    -2
 72
     1
 73
     4
  0
SEQEND
  5
42E
330
427
100
AcDbEntity
  8
0
  0
POLYLINE
  5
42F
330
1F
100
AcDbEntity
  8
0
100
AcDbPolyFaceMesh
 66
     1
 10
0.0
 20
0.0
 30
0.0
 70
    64
 71
     4
 72
     2
  0
VERTEX
  5
430
330
42F
100
AcDbEntity
  8
0
100
AcDbVertex
100
AcDbPolyFaceMeshVertex
 10
184.7116568287459
 20
95.40931776815493
 30
5.000000000000306
 70
   192
  0
VERTEX
  5
431
330
42F
100
AcDbEntity
  8
0
100
AcDbVertex
100
AcDbPolyFaceMeshVertex
 10
186.7027424490481
 20
93.1597204805586
 30
0.0000000000002707
 70
   192
  0
VERTEX
  5
432
330
42F
100
AcDbEntity
  8
0
100
AcDbVertex
100
AcDbPolyFaceMeshVertex
 10
184.7864696188344
 20
94.9324960394975
 30
0.0000000000001805
 70
   192
  0
VERTEX
  5
433
330
42F
100
AcDbEntity
  8
0
100
AcDbVertex
100
AcDbPolyFaceMeshVertex
 10
186.6279296589593
 20
93.63654220921595
 30
5.000000000000306
 70
   192
  0
VERTEX
  5
434
330
42F
100
AcDbEntity
  8
0
100
AcDbFaceRecord
 10
0.0
 20
0.0
 30
0.0
 70
   128
 71
    -1
 72
     2
 73
     3
  0
VERTEX
  5
435
330
42F
100
AcDbEntity
  8
0
100
AcDbFaceRecord
 10
0.0
 20
0.0
 30
0.0
 70
   128
 71
    -2
 72
     1
 73
     4
  0
SEQEND
  5
436
330
42F
100
AcDbEntity
  8
0
  0
POLYLINE
  5
437
330
1F
100
AcDbEntity
  8
0
100
AcDbPolyFaceMesh
 66
     1
 10
0.0
 20
0.0
 30
0.0
 70
    64
 71
     4
 72
     2
  0
VERTEX
  5
438
330
437
100
AcDbEntity
  8
0
100
AcDbVertex
100
AcDbPolyFaceMeshVertex
 10
189.0105649966056
 20
70.29193966916591
 30
0.000000000000361
 70
   192
  0
VERTEX
  5
439
330
437
100
AcDbEntity
  8
0
100
AcDbVertex
100
AcDbPolyFaceMeshVertex
 10
188.3586199523741
 20
68.22283266680678
 30
5.000000000000036
 70
   192
  0
VERTEX
  5
43A
330
437
100
AcDbEntity
  8
0
100
AcDbVertex
100
AcDbPolyFaceMeshVertex
 10
188.4334327424632
 20
67.74601093814945
 30
0.0000000000004512
 70
   192
  0
VERTEX
  5
43B
330
437
100
AcDbEntity
  8
0
100
AcDbVertex
100
AcDbPolyFaceMeshVertex
 10
188.9357522065169
 20
70.76876139782334
 30
5.000000000000306
 70
   192
  0
VERTEX
  5
43C
330
437
100
AcDbEntity
  8
0
100
AcDbFaceRecord
 10
0.0
 20
0.0
 30
0.0
 70
   128
 71
    -1
 72
     2
 73
     3
  0
VERTEX
  5
43D
330
437
100
AcDbEntity
  8
0
100
AcDbFaceRecord
 10
0.0
 20
0.0
 30
0.0
 70
   128
 71
    -2
 72
     1
 73
     4
  0
SEQEND
  5
43E
330
437
100
AcDbEntity
  8
0
  0
POLYLINE
  5
43F
330
1F
100
AcDbEntity
  8
0
100
AcDbPolyFaceMesh
 66
     1
 10
0.0
 20
0.0
 30
0.0
 70
    64
 71
     4
 72
     2
  0
VERTEX
  5
440
330
43F
100
AcDbEntity
  8
0
100
AcDbVertex
100
AcDbPolyFaceMeshVertex
 10
200.0059485452152
 20
57.44769713768747
 30
5.000000000000126
 70
   192
  0
VERTEX
  5
441
330
43F
100
AcDbEntity
  8
0
100
AcDbVertex
100
AcDbPolyFaceMeshVertex
 10
205.0088730499958
 20
57.81569456012002
 30
0.000000000000361
 70
   192
  0
VERTEX
  5
442
330
43F
100
AcDbEntity
  8
0
100
AcDbVertex
100
AcDbPolyFaceMeshVertex
 10
200.080761335304
 20
56.97087540903004
 30
0.0000000000001805
 70
   192
  0
VERTEX
  5
443
330
43F
100
AcDbEntity
  8
0
100
AcDbVertex
100
AcDbPolyFaceMeshVertex
 10
209.8621710933484
 20
59.13733528879582
 30
4.999999999999946
 70
   192
  0
VERTEX
  5
444
330
43F
100
AcDbEntity
  8
0
100
AcDbFaceRecord
 10
0.0
 20
0.0
 30
0.0
 70
   128
 71
    -1
 72
     2
 73
     3
  0
VERTEX
  5
445
330
43F
100
AcDbEntity
  8
0
100
AcDbFaceRecord
 10
0.0
 20
0.0
 30
0.0
 70
   128
 71
    -2
 72
     1
 73
     4
  0
SEQEND
  5
446
330
43F
100
AcDbEntity
  8
0
  0
POLYLINE
  5
447
330
1F
100
AcDbEntity
  8
0
100
AcDbPolyFaceMesh
 66
     1
 10
0.0
 20
0.0
 30
0.0
 70
    64
 71
     4
 72
     2
  0
VERTEX
  5
448
330
447
100
AcDbEntity
  8
0
100
AcDbVertex
100
AcDbPolyFaceMeshVertex
 10
196.1407003180067
 20
38.1049662449666
 30
0.0000000000002707
 70
   192
  0
VERTEX
  5
449
330
447
100
AcDbEntity
  8
0
100
AcDbVertex
100
AcDbPolyFaceMeshVertex
 10
194.8494857353967
 20
36.27198247935893
 30
5.000000000000217
 70
   192
  0
VERTEX
  5
44A
330
447
100
AcDbEntity
  8
0
100
AcDbVertex
100
AcDbPolyFaceMeshVertex
 10
194.9242985254855
 20
35.79516075070158
 30
0.0000000000001805
 70
   192
  0
VERTEX
  5
44B
330
447
100
AcDbEntity
  8
0
100
AcDbVertex
100
AcDbPolyFaceMeshVertex
 10
196.0658875279182
 20
38.58178797362367
 30
5.000000000000036
 70
   192
  0
VERTEX
  5
44C
330
447
100
AcDbEntity
  8
0
100
AcDbFaceRecord
 10
0.0
 20
0.0
 30
0.0
 70
   128
 71
    -1
 72
     2
 73
     3
  0
VERTEX
  5
44D
330
447
100
AcDbEntity
  8
0
100
AcDbFaceRecord
 10
0.0
 20
0.0
 30
0.0
 70
   128
 71
    -2
 72
     1
 73
     4
  0
SEQEND
  5
44E
330
447
100
AcDbEntity
  8
0
  0
POLYLINE
  5
44F
330
1F
100
AcDbEntity
  8
0
100
AcDbPolyFaceMesh
 66
     1
 10
0.0
 20
0.0
 30
0.0
 70
    64
 71
     4
 72
     2
  0
VERTEX
  5
450
330
44F
100
AcDbEntity
  8
0
100
AcDbVertex
100
AcDbPolyFaceMeshVertex
 10
200.0470006875223
 20
41.89021014341113
 30
5.000000000000217
 70
   192
  0
VERTEX
  5
451
330
44F
100
AcDbEntity
  8
0
100
AcDbVertex
100
AcDbPolyFaceMeshVertex
 10
197.9134758769459
 20
40.02123907518003
 30
0.0000000000004512
 70
   192
  0
VERTEX
  5
452
330
44F
100
AcDbEntity
  8
0
100
AcDbVertex
100
AcDbPolyFaceMeshVertex
 10
200.1218134776106
 20
41.41338841475388
 30
0.000000000000361
 70
   192
  0
VERTEX
  5
453
330
44F
100
AcDbEntity
  8
0
100
AcDbVertex
100
AcDbPolyFaceMeshVertex
 10
197.8386630868571
 20
40.49806080383737
 30
5.000000000000036
 70
   192
  0
VERTEX
  5
454
330
44F
100
AcDbEntity
  8
0
100
AcDbFaceRecord
 10
0.0
 20
0.0
 30
0.0
 70
   128
 71
    -1
 72
     2
 73
     3
  0
VERTEX
  5
455
330
44F
100
AcDbEntity
  8
0
100
AcDbFaceRecord
 10
0.0
 20
0.0
 30
0.0
 70
   128
 71
    -2
 72
     1
 73
     4
  0
SEQEND
  5
456
330
44F
100
AcDbEntity
  8
0
  0
POLYLINE
  5
457
330
1F
100
AcDbEntity
  8
0
100
AcDbPolyFaceMesh
 66
     1
 10
0.0
 20
0.0
 30
0.0
 70
    64
 71
     4
 72
     2
  0
VERTEX
  5
458
330
457
100
AcDbEntity
  8
0
100
AcDbVertex
100
AcDbPolyFaceMeshVertex
 10
194.9242985254855
 20
35.79516075070158
 30
0.0000000000001805
 70
   192
  0
VERTEX
  5
459
330
457
100
AcDbEntity
  8
0
100
AcDbVertex
100
AcDbPolyFaceMeshVertex
 10
194.2723534812539
 20
33.72605374834256
 30
5.000000000000036
 70
   192
  0
VERTEX
  5
45A
330
457
100
AcDbEntity
  8
0
100
AcDbVertex
100
AcDbPolyFaceMeshVertex
 10
194.347166271343
 20
33.24923201968512
 30
0.000000000000361
 70
   192
  0
VERTEX
  5
45B
330
457
100
AcDbEntity
  8
0
100
AcDbVertex
100
AcDbPolyFaceMeshVertex
 10
194.8494857353967
 20
36.27198247935893
 30
5.000000000000217
 70
   192
  0
VERTEX
  5
45C
330
457
100
AcDbEntity
  8
0
100
AcDbFaceRecord
 10
0.0
 20
0.0
 30
0.0
 70
   128
 71
    -1
 72
     2
 73
     3
  0
VERTEX
  5
45D
330
457
100
AcDbEntity
  8
0
100
AcDbFaceRecord
 10
0.0
 20
0.0
 30
0.0
 70
   128
 71
    -2
 72
     1
 73
     4
  0
SEQEND
  5
45E
330
457
100
AcDbEntity
  8
0
  0
POLYLINE
  5
45F
330
1F
100
AcDbEntity
  8
0
100
AcDbPolyFaceMesh
 66
     1
 10
0.0
 20
0.0
 30
0.0
 70
    64
 71
     4
 72
     2
  0
VERTEX
  5
460
330
45F
100
AcDbEntity
  8
0
100
AcDbVertex
100
AcDbPolyFaceMeshVertex
 10
170.7937000494239
 20
168.6277965614476
 30
0.000000000000361
 70
   192
  0
VERTEX
  5
461
330
45F
100
AcDbEntity
  8
0
100
AcDbVertex
100
AcDbPolyFaceMeshVertex
 10
171.492040431412
 20
166.6112132057488
 30
5.000000000000397
 70
   192
  0
VERTEX
  5
462
330
45F
100
AcDbEntity
  8
0
100
AcDbVertex
100
AcDbPolyFaceMeshVertex
 10
171.5668532215014
 20
166.1343914770914
 30
0.0000000000004512
 70
   192
  0
VERTEX
  5
463
330
45F
100
AcDbEntity
  8
0
100
AcDbVertex
100
AcDbPolyFaceMeshVertex
 10
170.7188872593347
 20
169.1046182901045
 30
5.000000000000306
 70
   192
  0
VERTEX
  5
464
330
45F
100
AcDbEntity
  8
0
100
AcDbFaceRecord
 10
0.0
 20
0.0
 30
0.0
 70
   128
 71
    -1
 72
     2
 73
     3
  0
VERTEX
  5
465
330
45F
100
AcDbEntity
  8
0
100
AcDbFaceRecord
 10
0.0
 20
0.0
 30
0.0
 70
   128
 71
    -2
 72
     1
 73
     4
  0
SEQEND
  5
466
330
45F
100
AcDbEntity
  8
0
  0
POLYLINE
  5
467
330
1F
100
AcDbEntity
  8
0
100
AcDbPolyFaceMesh
 66
     1
 10
0.0
 20
0.0
 30
0.0
 70
    64
 71
     4
 72
     2
  0
VERTEX
  5
468
330
467
100
AcDbEntity
  8
0
100
AcDbVertex
100
AcDbPolyFaceMeshVertex
 10
203.311130942
 20
22.84945032562297
 30
5.000000000000126
 70
   192
  0
VERTEX
  5
469
330
467
100
AcDbEntity
  8
0
100
AcDbVertex
100
AcDbPolyFaceMeshVertex
 10
205.9944948641838
 20
22.47409649056562
 30
0.0000000000004512
 70
   192
  0
VERTEX
  5
46A
330
467
100
AcDbEntity
  8
0
100
AcDbVertex
100
AcDbPolyFaceMeshVertex
 10
203.3859437320889
 20
22.37262859696572
 30
0.0000000000002707
 70
   192
  0
VERTEX
  5
46B
330
467
100
AcDbEntity
  8
0
100
AcDbVertex
100
AcDbPolyFaceMeshVertex
 10
205.9196820740955
 20
22.95091821922315
 30
5.000000000000217
 70
   192
  0
VERTEX
  5
46C
330
467
100
AcDbEntity
  8
0
100
AcDbFaceRecord
 10
0.0
 20
0.0
 30
0.0
 70
   128
 71
    -1
 72
     2
 73
     3
  0
VERTEX
  5
46D
330
467
100
AcDbEntity
  8
0
100
AcDbFaceRecord
 10
0.0
 20
0.0
 30
0.0
 70
   128
 71
    -2
 72
     1
 73
     4
  0
SEQEND
  5
46E
330
467
100
AcDbEntity
  8
0
  0
POLYLINE
  5
46F
330
1F
100
AcDbEntity
  8
0
100
AcDbPolyFaceMesh
 66
     1
 10
0.0
 20
0.0
 30
0.0
 70
    64
 71
     4
 72
     2
  0
VERTEX
  5
470
330
46F
100
AcDbEntity
  8
0
100
AcDbVertex
100
AcDbPolyFaceMeshVertex
 10
196.6139366765938
 20
25.93893820256904
 30
0.0000000000005414
 70
   192
  0
VERTEX
  5
471
330
46F
100
AcDbEntity
  8
0
100
AcDbVertex
100
AcDbPolyFaceMeshVertex
 10
198.4553967167185
 20
24.64298437228694
 30
5.000000000000217
 70
   192
  0
VERTEX
  5
472
330
46F
100
AcDbEntity
  8
0
100
AcDbVertex
100
AcDbPolyFaceMeshVertex
 10
198.5302095068074
 20
24.16616264362969
 30
0.0000000000002707
 70
   192
  0
VERTEX
  5
473
330
46F
100
AcDbEntity
  8
0
100
AcDbVertex
100
AcDbPolyFaceMeshVertex
 10
196.5391238865052
 20
26.41575993122602
 30
5.000000000000036
 70
   192
  0
VERTEX
  5
474
330
46F
100
AcDbEntity
  8
0
100
AcDbFaceRecord
 10
0.0
 20
0.0
 30
0.0
 70
   128
 71
    -1
 72
     2
 73
     3
  0
VERTEX
  5
475
330
46F
100
AcDbEntity
  8
0
100
AcDbFaceRecord
 10
0.0
 20
0.0
 30
0.0
 70
   128
 71
    -2
 72
     1
 73
     4
  0
SEQEND
  5
476
330
46F
100
AcDbEntity
  8
0
  0
POLYLINE
  5
477
330
1F
100
AcDbEntity
  8
0
100
AcDbPolyFaceMesh
 66
     1
 10
0.0
 20
0.0
 30
0.0
 70
    64
 71
     4
 72
     2
  0
VERTEX
  5
478
330
477
100
AcDbEntity
  8
0
100
AcDbVertex
100
AcDbPolyFaceMeshVertex
 10
197.9134758769459
 20
40.02123907518003
 30
0.0000000000004512
 70
   192
  0
VERTEX
  5
479
330
477
100
AcDbEntity
  8
0
100
AcDbVertex
100
AcDbPolyFaceMeshVertex
 10
196.0658875279182
 20
38.58178797362367
 30
5.000000000000036
 70
   192
  0
VERTEX
  5
47A
330
477
100
AcDbEntity
  8
0
100
AcDbVertex
100
AcDbPolyFaceMeshVertex
 10
196.1407003180067
 20
38.1049662449666
 30
0.0000000000002707
 70
   192
  0
VERTEX
  5
47B
330
477
100
AcDbEntity
  8
0
100
AcDbVertex
100
AcDbPolyFaceMeshVertex
 10
197.8386630868571
 20
40.49806080383737
 30
5.000000000000036
 70
   192
  0
VERTEX
  5
47C
330
477
100
AcDbEntity
  8
0
100
AcDbFaceRecord
 10
0.0
 20
0.0
 30
0.0
 70
   128
 71
    -1
 72
     2
 73
     3
  0
VERTEX
  5
47D
330
477
100
AcDbEntity
  8
0
100
AcDbFaceRecord
 10
0.0
 20
0.0
 30
0.0
 70
   128
 71
    -2
 72
     1
 73
     4
  0
SEQEND
  5
47E
330
477
100
AcDbEntity
  8
0
  0
POLYLINE
  5
47F
330
1F
100
AcDbEntity
  8
0
100
AcDbPolyFaceMesh
 66
     1
 10
0.0
 20
0.0
 30
0.0
 70
    64
 71
     4
 72
     2
  0
VERTEX
  5
480
330
47F
100
AcDbEntity
  8
0
100
AcDbVertex
100
AcDbPolyFaceMeshVertex
 10
194.4486341649432
 20
30.64068088759009
 30
0.000000000000361
 70
   192
  0
VERTEX
  5
481
330
47F
100
AcDbEntity
  8
0
100
AcDbVertex
100
AcDbPolyFaceMeshVertex
 10
195.1469745469315
 20
28.6240975318914
 30
5.000000000000126
 70
   192
  0
VERTEX
  5
482
330
47F
100
AcDbEntity
  8
0
100
AcDbVertex
100
AcDbPolyFaceMeshVertex
 10
195.2217873370205
 20
28.14727580323379
 30
0.0000000000005414
 70
   192
  0
VERTEX
  5
483
330
47F
100
AcDbEntity
  8
0
100
AcDbVertex
100
AcDbPolyFaceMeshVertex
 10
194.3738213748537
 20
31.11750261624734
 30
4.999999999999946
 70
   192
  0
VERTEX
  5
484
330
47F
100
AcDbEntity
  8
0
100
AcDbFaceRecord
 10
0.0
 20
0.0
 30
0.0
 70
   128
 71
    -1
 72
     2
 73
     3
  0
VERTEX
  5
485
330
47F
100
AcDbEntity
  8
0
100
AcDbFaceRecord
 10
0.0
 20
0.0
 30
0.0
 70
   128
 71
    -2
 72
     1
 73
     4
  0
SEQEND
  5
486
330
47F
100
AcDbEntity
  8
0
  0
POLYLINE
  5
487
330
1F
100
AcDbEntity
  8
0
100
AcDbPolyFaceMesh
 66
     1
 10
0.0
 20
0.0
 30
0.0
 70
    64
 71
     4
 72
     2
  0
VERTEX
  5
488
330
487
100
AcDbEntity
  8
0
100
AcDbVertex
100
AcDbPolyFaceMeshVertex
 10
194.347166271343
 20
33.24923201968512
 30
0.000000000000361
 70
   192
  0
VERTEX
  5
489
330
487
100
AcDbEntity
  8
0
100
AcDbVertex
100
AcDbPolyFaceMeshVertex
 10
194.3738213748537
 20
31.11750261624734
 30
4.999999999999946
 70
   192
  0
VERTEX
  5
48A
330
487
100
AcDbEntity
  8
0
100
AcDbVertex
100
AcDbPolyFaceMeshVertex
 10
194.4486341649432
 20
30.64068088759009
 30
0.000000000000361
 70
   192
  0
VERTEX
  5
48B
330
487
100
AcDbEntity
  8
0
100
AcDbVertex
100
AcDbPolyFaceMeshVertex
 10
194.2723534812539
 20
33.72605374834256
 30
5.000000000000036
 70
   192
  0
VERTEX
  5
48C
330
487
100
AcDbEntity
  8
0
100
AcDbFaceRecord
 10
0.0
 20
0.0
 30
0.0
 70
   128
 71
    -1
 72
     2
 73
     3
  0
VERTEX
  5
48D
330
487
100
AcDbEntity
  8
0
100
AcDbFaceRecord
 10
0.0
 20
0.0
 30
0.0
 70
   128
 71
    -2
 72
     1
 73
     4
  0
SEQEND
  5
48E
330
487
100
AcDbEntity
  8
0
  0
POLYLINE
  5
48F
330
1F
100
AcDbEntity
  8
0
100
AcDbPolyFaceMesh
 66
     1
 10
0.0
 20
0.0
 30
0.0
 70
    64
 71
     4
 72
     2
  0
VERTEX
  5
490
330
48F
100
AcDbEntity
  8
0
100
AcDbVertex
100
AcDbPolyFaceMeshVertex
 10
200.8400150010726
 20
22.94976085110823
 30
0.000000000000361
 70
   192
  0
VERTEX
  5
491
330
48F
100
AcDbEntity
  8
0
100
AcDbVertex
100
AcDbPolyFaceMeshVertex
 10
203.311130942
 20
22.84945032562297
 30
5.000000000000126
 70
   192
  0
VERTEX
  5
492
330
48F
100
AcDbEntity
  8
0
100
AcDbVertex
100
AcDbPolyFaceMeshVertex
 10
203.3859437320889
 20
22.37262859696572
 30
0.0000000000002707
 70
   192
  0
VERTEX
  5
493
330
48F
100
AcDbEntity
  8
0
100
AcDbVertex
100
AcDbPolyFaceMeshVertex
 10
200.7652022109835
 20
23.42658257976566
 30
5.000000000000036
 70
   192
  0
VERTEX
  5
494
330
48F
100
AcDbEntity
  8
0
100
AcDbFaceRecord
 10
0.0
 20
0.0
 30
0.0
 70
   128
 71
    -1
 72
     2
 73
     3
  0
VERTEX
  5
495
330
48F
100
AcDbEntity
  8
0
100
AcDbFaceRecord
 10
0.0
 20
0.0
 30
0.0
 70
   128
 71
    -2
 72
     1
 73
     4
  0
SEQEND
  5
496
330
48F
100
AcDbEntity
  8
0
  0
POLYLINE
  5
497
330
1F
100
AcDbEntity
  8
0
100
AcDbPolyFaceMesh
 66
     1
 10
0.0
 20
0.0
 30
0.0
 70
    64
 71
     4
 72
     2
  0
VERTEX
  5
498
330
497
100
AcDbEntity
  8
0
100
AcDbVertex
100
AcDbPolyFaceMeshVertex
 10
205.9944948641838
 20
22.47409649056562
 30
0.0000000000004512
 70
   192
  0
VERTEX
  5
499
330
497
100
AcDbEntity
  8
0
100
AcDbVertex
100
AcDbPolyFaceMeshVertex
 10
215.7759046222282
 20
24.6405563703315
 30
5.000000000000487
 70
   192
  0
VERTEX
  5
49A
330
497
100
AcDbEntity
  8
0
100
AcDbVertex
100
AcDbPolyFaceMeshVertex
 10
210.9226065788754
 20
23.31891564165543
 30
0.0000000000002707
 70
   192
  0
VERTEX
  5
49B
330
497
100
AcDbEntity
  8
0
100
AcDbVertex
100
AcDbPolyFaceMeshVertex
 10
205.9196820740955
 20
22.95091821922315
 30
5.000000000000217
 70
   192
  0
VERTEX
  5
49C
330
497
100
AcDbEntity
  8
0
100
AcDbFaceRecord
 10
0.0
 20
0.0
 30
0.0
 70
   128
 71
    -1
 72
     2
 73
     3
  0
VERTEX
  5
49D
330
497
100
AcDbEntity
  8
0
100
AcDbFaceRecord
 10
0.0
 20
0.0
 30
0.0
 70
   128
 71
    -2
 72
     1
 73
     4
  0
SEQEND
  5
49E
330
497
100
AcDbEntity
  8
0
  0
POLYLINE
  5
49F
330
1F
100
AcDbEntity
  8
0
100
AcDbPolyFaceMesh
 66
     1
 10
0.0
 20
0.0
 30
0.0
 70
    64
 71
     4
 72
     2
  0
VERTEX
  5
4A0
330
49F
100
AcDbEntity
  8
0
100
AcDbVertex
100
AcDbPolyFaceMeshVertex
 10
195.2217873370205
 20
28.14727580323379
 30
0.0000000000005414
 70
   192
  0
VERTEX
  5
4A1
330
49F
100
AcDbEntity
  8
0
100
AcDbVertex
100
AcDbPolyFaceMeshVertex
 10
196.5391238865052
 20
26.41575993122602
 30
5.000000000000036
 70
   192
  0
VERTEX
  5
4A2
330
49F
100
AcDbEntity
  8
0
100
AcDbVertex
100
AcDbPolyFaceMeshVertex
 10
196.6139366765938
 20
25.93893820256904
 30
0.0000000000005414
 70
   192
  0
VERTEX
  5
4A3
330
49F
100
AcDbEntity
  8
0
100
AcDbVertex
100
AcDbPolyFaceMeshVertex
 10
195.1469745469315
 20
28.6240975318914
 30
5.000000000000126
 70
   192
  0
VERTEX
  5
4A4
330
49F
100
AcDbEntity
  8
0
100
AcDbFaceRecord
 10
0.0
 20
0.0
 30
0.0
 70
   128
 71
    -1
 72
     2
 73
     3
  0
VERTEX
  5
4A5
330
49F
100
AcDbEntity
  8
0
100
AcDbFaceRecord
 10
0.0
 20
0.0
 30
0.0
 70
   128
 71
    -2
 72
     1
 73
     4
  0
SEQEND
  5
4A6
330
49F
100
AcDbEntity
  8
0
  0
POLYLINE
  5
4A7
330
1F
100
AcDbEntity
  8
0
100
AcDbPolyFaceMesh
 66
     1
 10
0.0
 20
0.0
 30
0.0
 70
    64
 71
     4
 72
     2
  0
VERTEX
  5
4A8
330
4A7
100
AcDbEntity
  8
0
100
AcDbVertex
100
AcDbPolyFaceMeshVertex
 10
202.5404057718783
 20
42.66336331548842
 30
5.000000000000306
 70
   192
  0
VERTEX
  5
4A9
330
4A7
100
AcDbEntity
  8
0
100
AcDbVertex
100
AcDbPolyFaceMeshVertex
 10
200.1218134776106
 20
41.41338841475388
 30
0.000000000000361
 70
   192
  0
VERTEX
  5
4AA
330
4A7
100
AcDbEntity
  8
0
100
AcDbVertex
100
AcDbPolyFaceMeshVertex
 10
202.615218561967
 20
42.18654158683126
 30
0.000000000000361
 70
   192
  0
VERTEX
  5
4AB
330
4A7
100
AcDbEntity
  8
0
100
AcDbVertex
100
AcDbPolyFaceMeshVertex
 10
200.0470006875223
 20
41.89021014341113
 30
5.000000000000217
 70
   192
  0
VERTEX
  5
4AC
330
4A7
100
AcDbEntity
  8
0
100
AcDbFaceRecord
 10
0.0
 20
0.0
 30
0.0
 70
   128
 71
    -1
 72
     2
 73
     3
  0
VERTEX
  5
4AD
330
4A7
100
AcDbEntity
  8
0
100
AcDbFaceRecord
 10
0.0
 20
0.0
 30
0.0
 70
   128
 71
    -2
 72
     1
 73
     4
  0
SEQEND
  5
4AE
330
4A7
100
AcDbEntity
  8
0
  0
POLYLINE
  5
4AF
330
1F
100
AcDbEntity
  8
0
100
AcDbPolyFaceMesh
 66
     1
 10
0.0
 20
0.0
 30
0.0
 70
    64
 71
     4
 72
     2
  0
VERTEX
  5
4B0
330
4AF
100
AcDbEntity
  8
0
100
AcDbVertex
100
AcDbPolyFaceMeshVertex
 10
198.4553967167185
 20
24.64298437228694
 30
5.000000000000217
 70
   192
  0
VERTEX
  5
4B1
330
4AF
100
AcDbEntity
  8
0
100
AcDbVertex
100
AcDbPolyFaceMeshVertex
 10
200.8400150010726
 20
22.94976085110823
 30
0.000000000000361
 70
   192
  0
VERTEX
  5
4B2
330
4AF
100
AcDbEntity
  8
0
100
AcDbVertex
100
AcDbPolyFaceMeshVertex
 10
198.5302095068074
 20
24.16616264362969
 30
0.0000000000002707
 70
   192
  0
VERTEX
  5
4B3
330
4AF
100
AcDbEntity
  8
0
100
AcDbVertex
100
AcDbPolyFaceMeshVertex
 10
200.7652022109835
 20
23.42658257976566
 30
5.000000000000036
 70
   192
  0
VERTEX
  5
4B4
330
4AF
100
AcDbEntity
  8
0
100
AcDbFaceRecord
 10
0.0
 20
0.0
 30
0.0
 70
   128
 71
    -1
 72
     2
 73
     3
  0
VERTEX
  5
4B5
330
4AF
100
AcDbEntity
  8
0
100
AcDbFaceRecord
 10
0.0
 20
0.0
 30
0.0
 70
   128
 71
    -2
 72
     1
 73
     4
  0
SEQEND
  5
4B6
330
4AF
100
AcDbEntity
  8
0
  0
POLYLINE
  5
4B7
330
1F
100
AcDbEntity
  8
0
100
AcDbPolyFaceMesh
 66
     1
 10
0.0
 20
0.0
 30
0.0
 70
    64
 71
     4
 72
     2
  0
VERTEX
  5
4B8
330
4B7
100
AcDbEntity
  8
0
100
AcDbVertex
100
AcDbPolyFaceMeshVertex
 10
203.9484375644685
 20
93.63411420726024
 30
5.000000000000036
 70
   192
  0
VERTEX
  5
4B9
330
4B7
100
AcDbEntity
  8
0
100
AcDbVertex
100
AcDbPolyFaceMeshVertex
 10
201.6295967477785
 20
77.52813965638556
 30
0.0000000000002707
 70
   192
  0
VERTEX
  5
4BA
330
4B7
100
AcDbEntity
  8
0
100
AcDbVertex
100
AcDbPolyFaceMeshVertex
 10
199.0951395211158
 20
92.31247347858452
 30
0.000000000000361
 70
   192
  0
VERTEX
  5
4BB
330
4B7
100
AcDbEntity
  8
0
100
AcDbVertex
100
AcDbPolyFaceMeshVertex
 10
206.4828947911308
 20
78.84978038506136
 30
5.000000000000217
 70
   192
  0
VERTEX
  5
4BC
330
4B7
100
AcDbEntity
  8
0
100
AcDbFaceRecord
 10
0.0
 20
0.0
 30
0.0
 70
   128
 71
    -1
 72
     2
 73
     3
  0
VERTEX
  5
4BD
330
4B7
100
AcDbEntity
  8
0
100
AcDbFaceRecord
 10
0.0
 20
0.0
 30
0.0
 70
   128
 71
    -2
 72
     1
 73
     4
  0
SEQEND
  5
4BE
330
4B7
100
AcDbEntity
  8
0
  0
POLYLINE
  5
4BF
330
1F
100
AcDbEntity
  8
0
100
AcDbPolyFaceMesh
 66
     1
 10
0.0
 20
0.0
 30
0.0
 70
    64
 71
     4
 72
     2
  0
VERTEX
  5
4C0
330
4BF
100
AcDbEntity
  8
0
100
AcDbVertex
100
AcDbPolyFaceMeshVertex
 10
168.4660363911906
 20
300.6147877180464
 30
5.000000000000126
 70
   192
  0
VERTEX
  5
4C1
330
4BF
100
AcDbEntity
  8
0
100
AcDbVertex
100
AcDbPolyFaceMeshVertex
 10
166.1471955744996
 20
284.5088131671715
 30
0.0000000000001805
 70
   192
  0
VERTEX
  5
4C2
330
4BF
100
AcDbEntity
  8
0
100
AcDbVertex
100
AcDbPolyFaceMeshVertex
 10
163.6127383478371
 20
299.2931469893705
 30
0.0000000000002707
 70
   192
  0
VERTEX
  5
4C3
330
4BF
100
AcDbEntity
  8
0
100
AcDbVertex
100
AcDbPolyFaceMeshVertex
 10
171.0004936178531
 20
285.8304538958473
 30
5.000000000000126
 70
   192
  0
VERTEX
  5
4C4
330
4BF
100
AcDbEntity
  8
0
100
AcDbFaceRecord
 10
0.0
 20
0.0
 30
0.0
 70
   128
 71
    -1
 72
     2
 73
     3
  0
VERTEX
  5
4C5
330
4BF
100
AcDbEntity
  8
0
100
AcDbFaceRecord
 10
0.0
 20
0.0
 30
0.0
 70
   128
 71
    -2
 72
     1
 73
     4
  0
SEQEND
  5
4C6
330
4BF
100
AcDbEntity
  8
0
  0
POLYLINE
  5
4C7
330
1F
100
AcDbEntity
  8
0
100
AcDbPolyFaceMesh
 66
     1
 10
0.0
 20
0.0
 30
0.0
 70
    64
 71
     4
 72
     2
  0
VERTEX
  5
4C8
330
4C7
100
AcDbEntity
  8
0
100
AcDbVertex
100
AcDbPolyFaceMeshVertex
 10
198.034704035589
 20
128.1308931257249
 30
5.000000000000036
 70
   192
  0
VERTEX
  5
4C9
330
4C7
100
AcDbEntity
  8
0
100
AcDbVertex
100
AcDbPolyFaceMeshVertex
 10
195.715863218899
 20
112.0249185748499
 30
0.000000000000361
 70
   192
  0
VERTEX
  5
4CA
330
4C7
100
AcDbEntity
  8
0
100
AcDbVertex
100
AcDbPolyFaceMeshVertex
 10
193.1814059922366
 20
126.8092523970489
 30
0.000000000000361
 70
   192
  0
VERTEX
  5
4CB
330
4C7
100
AcDbEntity
  8
0
100
AcDbVertex
100
AcDbPolyFaceMeshVertex
 10
200.5691612622517
 20
113.346559303526
 30
5.000000000000217
 70
   192
  0
VERTEX
  5
4CC
330
4C7
100
AcDbEntity
  8
0
100
AcDbFaceRecord
 10
0.0
 20
0.0
 30
0.0
 70
   128
 71
    -1
 72
     2
 73
     3
  0
VERTEX
  5
4CD
330
4C7
100
AcDbEntity
  8
0
100
AcDbFaceRecord
 10
0.0
 20
0.0
 30
0.0
 70
   128
 71
    -2
 72
     1
 73
     4
  0
SEQEND
  5
4CE
330
4C7
100
AcDbEntity
  8
0
  0
POLYLINE
  5
4CF
330
1F
100
AcDbEntity
  8
0
100
AcDbPolyFaceMesh
 66
     1
 10
0.0
 20
0.0
 30
0.0
 70
    64
 71
     4
 72
     2
  0
VERTEX
  5
4D0
330
4CF
100
AcDbEntity
  8
0
100
AcDbVertex
100
AcDbPolyFaceMeshVertex
 10
174.3797699200702
 20
266.1180087995821
 30
5.000000000000217
 70
   192
  0
VERTEX
  5
4D1
330
4CF
100
AcDbEntity
  8
0
100
AcDbVertex
100
AcDbPolyFaceMeshVertex
 10
172.0609291033796
 20
250.0120342487074
 30
0.0000000000004512
 70
   192
  0
VERTEX
  5
4D2
330
4CF
100
AcDbEntity
  8
0
100
AcDbVertex
100
AcDbPolyFaceMeshVertex
 10
169.5264718767171
 20
264.7963680709062
 30
0.0000000000004512
 70
   192
  0
VERTEX
  5
4D3
330
4CF
100
AcDbEntity
  8
0
100
AcDbVertex
100
AcDbPolyFaceMeshVertex
 10
176.9142271467327
 20
251.3336749773829
 30
5.000000000000036
 70
   192
  0
VERTEX
  5
4D4
330
4CF
100
AcDbEntity
  8
0
100
AcDbFaceRecord
 10
0.0
 20
0.0
 30
0.0
 70
   128
 71
    -1
 72
     2
 73
     3
  0
VERTEX
  5
4D5
330
4CF
100
AcDbEntity
  8
0
100
AcDbFaceRecord
 10
0.0
 20
0.0
 30
0.0
 70
   128
 71
    -2
 72
     1
 73
     4
  0
SEQEND
  5
4D6
330
4CF
100
AcDbEntity
  8
0
  0
POLYLINE
  5
4D7
330
1F
100
AcDbEntity
  8
0
100
AcDbPolyFaceMesh
 66
     1
 10
0.0
 20
0.0
 30
0.0
 70
    64
 71
     4
 72
     2
  0
VERTEX
  5
4D8
330
4D7
100
AcDbEntity
  8
0
100
AcDbVertex
100
AcDbPolyFaceMeshVertex
 10
192.1209705067092
 20
162.6276720441891
 30
5.000000000000217
 70
   192
  0
VERTEX
  5
4D9
330
4D7
100
AcDbEntity
  8
0
100
AcDbVertex
100
AcDbPolyFaceMeshVertex
 10
189.8021296900195
 20
146.5216974933143
 30
0.000000000000361
 70
   192
  0
VERTEX
  5
4DA
330
4D7
100
AcDbEntity
  8
0
100
AcDbVertex
100
AcDbPolyFaceMeshVertex
 10
187.2676724633565
 20
161.3060313155133
 30
0.000000000000361
 70
   192
  0
VERTEX
  5
4DB
330
4D7
100
AcDbEntity
  8
0
100
AcDbVertex
100
AcDbPolyFaceMeshVertex
 10
194.6554277333715
 20
147.8433382219901
 30
5.000000000000306
 70
   192
  0
VERTEX
  5
4DC
330
4D7
100
AcDbEntity
  8
0
100
AcDbFaceRecord
 10
0.0
 20
0.0
 30
0.0
 70
   128
 71
    -1
 72
     2
 73
     3
  0
VERTEX
  5
4DD
330
4D7
100
AcDbEntity
  8
0
100
AcDbFaceRecord
 10
0.0
 20
0.0
 30
0.0
 70
   128
 71
    -2
 72
     1
 73
     4
  0
SEQEND
  5
4DE
330
4D7
100
AcDbEntity
  8
0
  0
POLYLINE
  5
4DF
330
1F
100
AcDbEntity
  8
0
100
AcDbPolyFaceMesh
 66
     1
 10
0.0
 20
0.0
 30
0.0
 70
    64
 71
     4
 72
     2
  0
VERTEX
  5
4E0
330
4DF
100
AcDbEntity
  8
0
100
AcDbVertex
100
AcDbPolyFaceMeshVertex
 10
186.2072369778302
 20
197.1244509626533
 30
5.000000000000306
 70
   192
  0
VERTEX
  5
4E1
330
4DF
100
AcDbEntity
  8
0
100
AcDbVertex
100
AcDbPolyFaceMeshVertex
 10
183.8883961611394
 20
181.0184764117784
 30
0.0000000000002707
 70
   192
  0
VERTEX
  5
4E2
330
4DF
100
AcDbEntity
  8
0
100
AcDbVertex
100
AcDbPolyFaceMeshVertex
 10
181.353938934477
 20
195.8028102339774
 30
0.0000000000002707
 70
   192
  0
VERTEX
  5
4E3
330
4DF
100
AcDbEntity
  8
0
100
AcDbVertex
100
AcDbPolyFaceMeshVertex
 10
188.7416942044925
 20
182.3401171404543
 30
5.000000000000397
 70
   192
  0
VERTEX
  5
4E4
330
4DF
100
AcDbEntity
  8
0
100
AcDbFaceRecord
 10
0.0
 20
0.0
 30
0.0
 70
   128
 71
    -1
 72
     2
 73
     3
  0
VERTEX
  5
4E5
330
4DF
100
AcDbEntity
  8
0
100
AcDbFaceRecord
 10
0.0
 20
0.0
 30
0.0
 70
   128
 71
    -2
 72
     1
 73
     4
  0
SEQEND
  5
4E6
330
4DF
100
AcDbEntity
  8
0
  0
POLYLINE
  5
4E7
330
1F
100
AcDbEntity
  8
0
100
AcDbPolyFaceMesh
 66
     1
 10
0.0
 20
0.0
 30
0.0
 70
    64
 71
     4
 72
     2
  0
VERTEX
  5
4E8
330
4E7
100
AcDbEntity
  8
0
100
AcDbVertex
100
AcDbPolyFaceMeshVertex
 10
180.2935034489498
 20
231.621229881118
 30
5.000000000000306
 70
   192
  0
VERTEX
  5
4E9
330
4E7
100
AcDbEntity
  8
0
100
AcDbVertex
100
AcDbPolyFaceMeshVertex
 10
177.9746624119476
 20
215.5152552924752
 30
-0.0000002235255231
 70
   192
  0
VERTEX
  5
4EA
330
4E7
100
AcDbEntity
  8
0
100
AcDbVertex
100
AcDbPolyFaceMeshVertex
 10
175.4402054055969
 20
230.2995891524419
 30
0.000000000000361
 70
   192
  0
VERTEX
  5
4EB
330
4E7
100
AcDbEntity
  8
0
100
AcDbVertex
100
AcDbPolyFaceMeshVertex
 10
182.8279606756127
 20
216.8368960589186
 30
5.000000000000306
 70
   192
  0
VERTEX
  5
4EC
330
4E7
100
AcDbEntity
  8
0
100
AcDbFaceRecord
 10
0.0
 20
0.0
 30
0.0
 70
   128
 71
    -1
 72
     2
 73
     3
  0
VERTEX
  5
4ED
330
4E7
100
AcDbEntity
  8
0
100
AcDbFaceRecord
 10
0.0
 20
0.0
 30
0.0
 70
   128
 71
    -2
 72
     1
 73
     4
  0
SEQEND
  5
4EE
330
4E7
100
AcDbEntity
  8
0
  0
POLYLINE
  5
4EF
330
1F
100
AcDbEntity
  8
0
100
AcDbPolyFaceMesh
 66
     1
 10
0.0
 20
0.0
 30
0.0
 70
    64
 71
     4
 72
     2
  0
VERTEX
  5
4F0
330
4EF
100
AcDbEntity
  8
0
100
AcDbVertex
100
AcDbPolyFaceMeshVertex
 10
209.8621710933484
 20
59.13733528879582
 30
4.999999999999946
 70
   192
  0
VERTEX
  5
4F1
330
4EF
100
AcDbEntity
  8
0
100
AcDbVertex
100
AcDbPolyFaceMeshVertex
 10
207.5433302766582
 20
43.03136073792142
 30
0.0000000000002707
 70
   192
  0
VERTEX
  5
4F2
330
4EF
100
AcDbEntity
  8
0
100
AcDbVertex
100
AcDbPolyFaceMeshVertex
 10
205.0088730499958
 20
57.81569456012002
 30
0.000000000000361
 70
   192
  0
VERTEX
  5
4F3
330
4EF
100
AcDbEntity
  8
0
100
AcDbVertex
100
AcDbPolyFaceMeshVertex
 10
212.3966283200112
 20
44.35300146659687
 30
5.000000000000126
 70
   192
  0
VERTEX
  5
4F4
330
4EF
100
AcDbEntity
  8
0
100
AcDbFaceRecord
 10
0.0
 20
0.0
 30
0.0
 70
   128
 71
    -1
 72
     2
 73
     3
  0
VERTEX
  5
4F5
330
4EF
100
AcDbEntity
  8
0
100
AcDbFaceRecord
 10
0.0
 20
0.0
 30
0.0
 70
   128
 71
    -2
 72
     1
 73
     4
  0
SEQEND
  5
4F6
330
4EF
100
AcDbEntity
  8
0
  0
POLYLINE
  5
4F7
330
1F
100
AcDbEntity
  8
0
100
AcDbPolyFaceMesh
 66
     1
 10
0.0
 20
0.0
 30
0.0
 70
    64
 71
     4
 72
     2
  0
VERTEX
  5
4F8
330
4F7
100
AcDbEntity
  8
0
100
AcDbVertex
100
AcDbPolyFaceMeshVertex
 10
147.6144302944481
 20
311.7693920984165
 30
0.0000000000002707
 70
   192
  0
VERTEX
  5
4F9
330
4F7
100
AcDbEntity
  8
0
100
AcDbVertex
100
AcDbPolyFaceMeshVertex
 10
146.9624852502174
 20
309.7002850960574
 30
5.000000000000126
 70
   192
  0
VERTEX
  5
4FA
330
4F7
100
AcDbEntity
  8
0
100
AcDbVertex
100
AcDbPolyFaceMeshVertex
 10
147.0372980403055
 20
309.2234633674002
 30
0.000000000000361
 70
   192
  0
VERTEX
  5
4FB
330
4F7
100
AcDbEntity
  8
0
100
AcDbVertex
100
AcDbPolyFaceMeshVertex
 10
147.53961750436
 20
312.2462138270738
 30
5.000000000000126
 70
   192
  0
VERTEX
  5
4FC
330
4F7
100
AcDbEntity
  8
0
100
AcDbFaceRecord
 10
0.0
 20
0.0
 30
0.0
 70
   128
 71
    -1
 72
     2
 73
     3
  0
VERTEX
  5
4FD
330
4F7
100
AcDbEntity
  8
0
100
AcDbFaceRecord
 10
0.0
 20
0.0
 30
0.0
 70
   128
 71
    -2
 72
     1
 73
     4
  0
SEQEND
  5
4FE
330
4F7
100
AcDbEntity
  8
0
  0
POLYLINE
  5
4FF
330
1F
100
AcDbEntity
  8
0
100
AcDbPolyFaceMesh
 66
     1
 10
0.0
 20
0.0
 30
0.0
 70
    64
 71
     4
 72
     2
  0
VERTEX
  5
500
330
4FF
100
AcDbEntity
  8
0
100
AcDbVertex
100
AcDbPolyFaceMeshVertex
 10
147.0372980403055
 20
309.2234633674002
 30
0.000000000000361
 70
   192
  0
VERTEX
  5
501
330
4FF
100
AcDbEntity
  8
0
100
AcDbVertex
100
AcDbPolyFaceMeshVertex
 10
147.0639531438169
 20
307.0917339639622
 30
5.000000000000036
 70
   192
  0
VERTEX
  5
502
330
4FF
100
AcDbEntity
  8
0
100
AcDbVertex
100
AcDbPolyFaceMeshVertex
 10
147.1387659339058
 20
306.6149122353049
 30
0.000000000000361
 70
   192
  0
VERTEX
  5
503
330
4FF
100
AcDbEntity
  8
0
100
AcDbVertex
100
AcDbPolyFaceMeshVertex
 10
146.9624852502174
 20
309.7002850960574
 30
5.000000000000126
 70
   192
  0
VERTEX
  5
504
330
4FF
100
AcDbEntity
  8
0
100
AcDbFaceRecord
 10
0.0
 20
0.0
 30
0.0
 70
   128
 71
    -1
 72
     2
 73
     3
  0
VERTEX
  5
505
330
4FF
100
AcDbEntity
  8
0
100
AcDbFaceRecord
 10
0.0
 20
0.0
 30
0.0
 70
   128
 71
    -2
 72
     1
 73
     4
  0
SEQEND
  5
506
330
4FF
100
AcDbEntity
  8
0
  0
POLYLINE
  5
507
330
1F
100
AcDbEntity
  8
0
100
AcDbPolyFaceMesh
 66
     1
 10
0.0
 20
0.0
 30
0.0
 70
    64
 71
     4
 72
     2
  0
VERTEX
  5
508
330
507
100
AcDbEntity
  8
0
100
AcDbVertex
100
AcDbPolyFaceMeshVertex
 10
156.5173411747882
 20
281.4986915044307
 30
0.0000000000004512
 70
   192
  0
VERTEX
  5
509
330
507
100
AcDbEntity
  8
0
100
AcDbVertex
100
AcDbPolyFaceMeshVertex
 10
154.6697528257603
 20
280.0592404028743
 30
5.000000000000126
 70
   192
  0
VERTEX
  5
50A
330
507
100
AcDbEntity
  8
0
100
AcDbVertex
100
AcDbPolyFaceMeshVertex
 10
154.7445656158493
 20
279.5824186742172
 30
0.000000000000361
 70
   192
  0
VERTEX
  5
50B
330
507
100
AcDbEntity
  8
0
100
AcDbVertex
100
AcDbPolyFaceMeshVertex
 10
156.4425283846996
 20
281.975513233088
 30
5.000000000000036
 70
   192
  0
VERTEX
  5
50C
330
507
100
AcDbEntity
  8
0
100
AcDbFaceRecord
 10
0.0
 20
0.0
 30
0.0
 70
   128
 71
    -1
 72
     2
 73
     3
  0
VERTEX
  5
50D
330
507
100
AcDbEntity
  8
0
100
AcDbFaceRecord
 10
0.0
 20
0.0
 30
0.0
 70
   128
 71
    -2
 72
     1
 73
     4
  0
SEQEND
  5
50E
330
507
100
AcDbEntity
  8
0
  0
POLYLINE
  5
50F
330
1F
100
AcDbEntity
  8
0
100
AcDbPolyFaceMesh
 66
     1
 10
0.0
 20
0.0
 30
0.0
 70
    64
 71
     4
 72
     2
  0
VERTEX
  5
510
330
50F
100
AcDbEntity
  8
0
100
AcDbVertex
100
AcDbPolyFaceMeshVertex
 10
155.2178019744363
 20
267.4163906318194
 30
0.000000000000361
 70
   192
  0
VERTEX
  5
511
330
50F
100
AcDbEntity
  8
0
100
AcDbVertex
100
AcDbPolyFaceMeshVertex
 10
157.059262014561
 20
266.1204368015376
 30
5.000000000000036
 70
   192
  0
VERTEX
  5
512
330
50F
100
AcDbEntity
  8
0
100
AcDbVertex
100
AcDbPolyFaceMeshVertex
 10
157.13407480465
 20
265.6436150728804
 30
0.0000000000002707
 70
   192
  0
VERTEX
  5
513
330
50F
100
AcDbEntity
  8
0
100
AcDbVertex
100
AcDbPolyFaceMeshVertex
 10
155.1429891843472
 20
267.8932123604766
 30
5.000000000000126
 70
   192
  0
VERTEX
  5
514
330
50F
100
AcDbEntity
  8
0
100
AcDbFaceRecord
 10
0.0
 20
0.0
 30
0.0
 70
   128
 71
    -1
 72
     2
 73
     3
  0
VERTEX
  5
515
330
50F
100
AcDbEntity
  8
0
100
AcDbFaceRecord
 10
0.0
 20
0.0
 30
0.0
 70
   128
 71
    -2
 72
     1
 73
     4
  0
SEQEND
  5
516
330
50F
100
AcDbEntity
  8
0
  0
POLYLINE
  5
517
330
1F
100
AcDbEntity
  8
0
100
AcDbPolyFaceMesh
 66
     1
 10
0.0
 20
0.0
 30
0.0
 70
    64
 71
     4
 72
     2
  0
VERTEX
  5
518
330
517
100
AcDbEntity
  8
0
100
AcDbVertex
100
AcDbPolyFaceMeshVertex
 10
162.431074703668
 20
247.0019125859666
 30
0.0000000000002707
 70
   192
  0
VERTEX
  5
519
330
517
100
AcDbEntity
  8
0
100
AcDbVertex
100
AcDbPolyFaceMeshVertex
 10
160.5834863546402
 20
245.5624614844101
 30
5.000000000000036
 70
   192
  0
VERTEX
  5
51A
330
517
100
AcDbEntity
  8
0
100
AcDbVertex
100
AcDbPolyFaceMeshVertex
 10
160.6582991447288
 20
245.0856397557529
 30
0.0000000000004512
 70
   192
  0
VERTEX
  5
51B
330
517
100
AcDbEntity
  8
0
100
AcDbVertex
100
AcDbPolyFaceMeshVertex
 10
162.3562619135792
 20
247.4787343146238
 30
5.000000000000306
 70
   192
  0
VERTEX
  5
51C
330
517
100
AcDbEntity
  8
0
100
AcDbFaceRecord
 10
0.0
 20
0.0
 30
0.0
 70
   128
 71
    -1
 72
     2
 73
     3
  0
VERTEX
  5
51D
330
517
100
AcDbEntity
  8
0
100
AcDbFaceRecord
 10
0.0
 20
0.0
 30
0.0
 70
   128
 71
    -2
 72
     1
 73
     4
  0
SEQEND
  5
51E
330
517
100
AcDbEntity
  8
0
  0
POLYLINE
  5
51F
330
1F
100
AcDbEntity
  8
0
100
AcDbPolyFaceMesh
 66
     1
 10
0.0
 20
0.0
 30
0.0
 70
    64
 71
     4
 72
     2
  0
VERTEX
  5
520
330
51F
100
AcDbEntity
  8
0
100
AcDbVertex
100
AcDbPolyFaceMeshVertex
 10
158.6508659853644
 20
283.3676625726617
 30
4.999999999999946
 70
   192
  0
VERTEX
  5
521
330
51F
100
AcDbEntity
  8
0
100
AcDbVertex
100
AcDbPolyFaceMeshVertex
 10
156.5173411747882
 20
281.4986915044307
 30
0.0000000000004512
 70
   192
  0
VERTEX
  5
522
330
51F
100
AcDbEntity
  8
0
100
AcDbVertex
100
AcDbPolyFaceMeshVertex
 10
158.725678775453
 20
282.8908408440045
 30
0.0000000000004512
 70
   192
  0
VERTEX
  5
523
330
51F
100
AcDbEntity
  8
0
100
AcDbVertex
100
AcDbPolyFaceMeshVertex
 10
156.4425283846996
 20
281.975513233088
 30
5.000000000000036
 70
   192
  0
VERTEX
  5
524
330
51F
100
AcDbEntity
  8
0
100
AcDbFaceRecord
 10
0.0
 20
0.0
 30
0.0
 70
   128
 71
    -1
 72
     2
 73
     3
  0
VERTEX
  5
525
330
51F
100
AcDbEntity
  8
0
100
AcDbFaceRecord
 10
0.0
 20
0.0
 30
0.0
 70
   128
 71
    -2
 72
     1
 73
     4
  0
SEQEND
  5
526
330
51F
100
AcDbEntity
  8
0
  0
POLYLINE
  5
527
330
1F
100
AcDbEntity
  8
0
100
AcDbPolyFaceMesh
 66
     1
 10
0.0
 20
0.0
 30
0.0
 70
    64
 71
     4
 72
     2
  0
VERTEX
  5
528
330
527
100
AcDbEntity
  8
0
100
AcDbVertex
100
AcDbPolyFaceMeshVertex
 10
160.6582991447288
 20
245.0856397557529
 30
0.0000000000004512
 70
   192
  0
VERTEX
  5
529
330
527
100
AcDbEntity
  8
0
100
AcDbVertex
100
AcDbPolyFaceMeshVertex
 10
159.3670845621189
 20
243.2526559901449
 30
5.000000000000036
 70
   192
  0
VERTEX
  5
52A
330
527
100
AcDbEntity
  8
0
100
AcDbVertex
100
AcDbPolyFaceMeshVertex
 10
159.4418973522071
 20
242.7758342614879
 30
0.0000000000004512
 70
   192
  0
VERTEX
  5
52B
330
527
100
AcDbEntity
  8
0
100
AcDbVertex
100
AcDbPolyFaceMeshVertex
 10
160.5834863546402
 20
245.5624614844101
 30
5.000000000000036
 70
   192
  0
VERTEX
  5
52C
330
527
100
AcDbEntity
  8
0
100
AcDbFaceRecord
 10
0.0
 20
0.0
 30
0.0
 70
   128
 71
    -1
 72
     2
 73
     3
  0
VERTEX
  5
52D
330
527
100
AcDbEntity
  8
0
100
AcDbFaceRecord
 10
0.0
 20
0.0
 30
0.0
 70
   128
 71
    -2
 72
     1
 73
     4
  0
SEQEND
  5
52E
330
527
100
AcDbEntity
  8
0
  0
POLYLINE
  5
52F
330
1F
100
AcDbEntity
  8
0
100
AcDbPolyFaceMesh
 66
     1
 10
0.0
 20
0.0
 30
0.0
 70
    64
 71
     4
 72
     2
  0
VERTEX
  5
530
330
52F
100
AcDbEntity
  8
0
100
AcDbVertex
100
AcDbPolyFaceMeshVertex
 10
155.3053503309298
 20
318.1607729345459
 30
0.000000000000361
 70
   192
  0
VERTEX
  5
531
330
52F
100
AcDbEntity
  8
0
100
AcDbVertex
100
AcDbPolyFaceMeshVertex
 10
152.7371324564851
 20
317.8644414911259
 30
5.000000000000036
 70
   192
  0
VERTEX
  5
532
330
52F
100
AcDbEntity
  8
0
100
AcDbVertex
100
AcDbPolyFaceMeshVertex
 10
152.8119452465735
 20
317.3876197624687
 30
0.0000000000002707
 70
   192
  0
VERTEX
  5
533
330
52F
100
AcDbEntity
  8
0
100
AcDbVertex
100
AcDbPolyFaceMeshVertex
 10
155.230537540841
 20
318.6375946632033
 30
5.000000000000306
 70
   192
  0
VERTEX
  5
534
330
52F
100
AcDbEntity
  8
0
100
AcDbFaceRecord
 10
0.0
 20
0.0
 30
0.0
 70
   128
 71
    -1
 72
     2
 73
     3
  0
VERTEX
  5
535
330
52F
100
AcDbEntity
  8
0
100
AcDbFaceRecord
 10
0.0
 20
0.0
 30
0.0
 70
   128
 71
    -2
 72
     1
 73
     4
  0
SEQEND
  5
536
330
52F
100
AcDbEntity
  8
0
  0
POLYLINE
  5
537
330
1F
100
AcDbEntity
  8
0
100
AcDbPolyFaceMesh
 66
     1
 10
0.0
 20
0.0
 30
0.0
 70
    64
 71
     4
 72
     2
  0
VERTEX
  5
538
330
537
100
AcDbEntity
  8
0
100
AcDbVertex
100
AcDbPolyFaceMeshVertex
 10
150.6036076459083
 20
315.9954704228952
 30
0.0000000000004512
 70
   192
  0
VERTEX
  5
539
330
537
100
AcDbEntity
  8
0
100
AcDbVertex
100
AcDbPolyFaceMeshVertex
 10
148.7560192968811
 20
314.5560193213389
 30
5.000000000000126
 70
   192
  0
VERTEX
  5
53A
330
537
100
AcDbEntity
  8
0
100
AcDbVertex
100
AcDbPolyFaceMeshVertex
 10
148.8308320869696
 20
314.0791975926816
 30
0.0000000000002707
 70
   192
  0
VERTEX
  5
53B
330
537
100
AcDbEntity
  8
0
100
AcDbVertex
100
AcDbPolyFaceMeshVertex
 10
150.52879485582
 20
316.4722921515526
 30
5.000000000000036
 70
   192
  0
VERTEX
  5
53C
330
537
100
AcDbEntity
  8
0
100
AcDbFaceRecord
 10
0.0
 20
0.0
 30
0.0
 70
   128
 71
    -1
 72
     2
 73
     3
  0
VERTEX
  5
53D
330
537
100
AcDbEntity
  8
0
100
AcDbFaceRecord
 10
0.0
 20
0.0
 30
0.0
 70
   128
 71
    -2
 72
     1
 73
     4
  0
SEQEND
  5
53E
330
537
100
AcDbEntity
  8
0
  0
POLYLINE
  5
53F
330
1F
100
AcDbEntity
  8
0
100
AcDbPolyFaceMesh
 66
     1
 10
0.0
 20
0.0
 30
0.0
 70
    64
 71
     4
 72
     2
  0
VERTEX
  5
540
330
53F
100
AcDbEntity
  8
0
100
AcDbVertex
100
AcDbPolyFaceMeshVertex
 10
148.8308320869696
 20
314.0791975926816
 30
0.0000000000002707
 70
   192
  0
VERTEX
  5
541
330
53F
100
AcDbEntity
  8
0
100
AcDbVertex
100
AcDbPolyFaceMeshVertex
 10
147.53961750436
 20
312.2462138270738
 30
5.000000000000126
 70
   192
  0
VERTEX
  5
542
330
53F
100
AcDbEntity
  8
0
100
AcDbVertex
100
AcDbPolyFaceMeshVertex
 10
147.6144302944481
 20
311.7693920984165
 30
0.0000000000002707
 70
   192
  0
VERTEX
  5
543
330
53F
100
AcDbEntity
  8
0
100
AcDbVertex
100
AcDbPolyFaceMeshVertex
 10
148.7560192968811
 20
314.5560193213389
 30
5.000000000000126
 70
   192
  0
VERTEX
  5
544
330
53F
100
AcDbEntity
  8
0
100
AcDbFaceRecord
 10
0.0
 20
0.0
 30
0.0
 70
   128
 71
    -1
 72
     2
 73
     3
  0
VERTEX
  5
545
330
53F
100
AcDbEntity
  8
0
100
AcDbFaceRecord
 10
0.0
 20
0.0
 30
0.0
 70
   128
 71
    -2
 72
     1
 73
     4
  0
SEQEND
  5
546
330
53F
100
AcDbEntity
  8
0
  0
POLYLINE
  5
547
330
1F
100
AcDbEntity
  8
0
100
AcDbPolyFaceMesh
 66
     1
 10
0.0
 20
0.0
 30
0.0
 70
    64
 71
     4
 72
     2
  0
VERTEX
  5
548
330
547
100
AcDbEntity
  8
0
100
AcDbVertex
100
AcDbPolyFaceMeshVertex
 10
149.2292556554679
 20
302.3899912789408
 30
5.000000000000217
 70
   192
  0
VERTEX
  5
549
330
547
100
AcDbEntity
  8
0
100
AcDbVertex
100
AcDbPolyFaceMeshVertex
 10
151.2203412757695
 20
300.1403939913446
 30
0.0000000000002707
 70
   192
  0
VERTEX
  5
54A
330
547
100
AcDbEntity
  8
0
100
AcDbVertex
100
AcDbPolyFaceMeshVertex
 10
149.3040684455567
 20
301.9131695502837
 30
0.0000000000002707
 70
   192
  0
VERTEX
  5
54B
330
547
100
AcDbEntity
  8
0
100
AcDbVertex
100
AcDbPolyFaceMeshVertex
 10
151.1455284856816
 20
300.6172157200018
 30
5.000000000000217
 70
   192
  0
VERTEX
  5
54C
330
547
100
AcDbEntity
  8
0
100
AcDbFaceRecord
 10
0.0
 20
0.0
 30
0.0
 70
   128
 71
    -1
 72
     2
 73
     3
  0
VERTEX
  5
54D
330
547
100
AcDbEntity
  8
0
100
AcDbFaceRecord
 10
0.0
 20
0.0
 30
0.0
 70
   128
 71
    -2
 72
     1
 73
     4
  0
SEQEND
  5
54E
330
547
100
AcDbEntity
  8
0
  0
POLYLINE
  5
54F
330
1F
100
AcDbEntity
  8
0
100
AcDbPolyFaceMesh
 66
     1
 10
0.0
 20
0.0
 30
0.0
 70
    64
 71
     4
 72
     2
  0
VERTEX
  5
550
330
54F
100
AcDbEntity
  8
0
100
AcDbVertex
100
AcDbPolyFaceMeshVertex
 10
161.056722713227
 20
233.3964334420123
 30
5.000000000000036
 70
   192
  0
VERTEX
  5
551
330
54F
100
AcDbEntity
  8
0
100
AcDbVertex
100
AcDbPolyFaceMeshVertex
 10
163.0478083335293
 20
231.1468361544159
 30
0.0000000000004512
 70
   192
  0
VERTEX
  5
552
330
54F
100
AcDbEntity
  8
0
100
AcDbVertex
100
AcDbPolyFaceMeshVertex
 10
161.1315355033158
 20
232.919611713355
 30
0.000000000000361
 70
   192
  0
VERTEX
  5
553
330
54F
100
AcDbEntity
  8
0
100
AcDbVertex
100
AcDbPolyFaceMeshVertex
 10
162.9729955434408
 20
231.6236578830732
 30
5.000000000000217
 70
   192
  0
VERTEX
  5
554
330
54F
100
AcDbEntity
  8
0
100
AcDbFaceRecord
 10
0.0
 20
0.0
 30
0.0
 70
   128
 71
    -1
 72
     2
 73
     3
  0
VERTEX
  5
555
330
54F
100
AcDbEntity
  8
0
100
AcDbFaceRecord
 10
0.0
 20
0.0
 30
0.0
 70
   128
 71
    -2
 72
     1
 73
     4
  0
SEQEND
  5
556
330
54F
100
AcDbEntity
  8
0
  0
POLYLINE
  5
557
330
1F
100
AcDbEntity
  8
0
100
AcDbPolyFaceMesh
 66
     1
 10
0.0
 20
0.0
 30
0.0
 70
    64
 71
     4
 72
     2
  0
VERTEX
  5
558
330
557
100
AcDbEntity
  8
0
100
AcDbVertex
100
AcDbPolyFaceMeshVertex
 10
168.3448082325476
 20
212.5051336675023
 30
0.000000000000361
 70
   192
  0
VERTEX
  5
559
330
557
100
AcDbEntity
  8
0
100
AcDbVertex
100
AcDbPolyFaceMeshVertex
 10
166.4972198835196
 20
211.0656825659459
 30
5.000000000000036
 70
   192
  0
VERTEX
  5
55A
330
557
100
AcDbEntity
  8
0
100
AcDbVertex
100
AcDbPolyFaceMeshVertex
 10
166.5720326736086
 20
210.5888608372885
 30
0.000000000000361
 70
   192
  0
VERTEX
  5
55B
330
557
100
AcDbEntity
  8
0
100
AcDbVertex
100
AcDbPolyFaceMeshVertex
 10
168.2699954424588
 20
212.9819553961594
 30
5.000000000000306
 70
   192
  0
VERTEX
  5
55C
330
557
100
AcDbEntity
  8
0
100
AcDbFaceRecord
 10
0.0
 20
0.0
 30
0.0
 70
   128
 71
    -1
 72
     2
 73
     3
  0
VERTEX
  5
55D
330
557
100
AcDbEntity
  8
0
100
AcDbFaceRecord
 10
0.0
 20
0.0
 30
0.0
 70
   128
 71
    -2
 72
     1
 73
     4
  0
SEQEND
  5
55E
330
557
100
AcDbEntity
  8
0
  0
POLYLINE
  5
55F
330
1F
100
AcDbEntity
  8
0
100
AcDbPolyFaceMesh
 66
     1
 10
0.0
 20
0.0
 30
0.0
 70
    64
 71
     4
 72
     2
  0
VERTEX
  5
560
330
55F
100
AcDbEntity
  8
0
100
AcDbVertex
100
AcDbPolyFaceMeshVertex
 10
164.8799665205439
 20
203.1245754799117
 30
0.000000000000361
 70
   192
  0
VERTEX
  5
561
330
55F
100
AcDbEntity
  8
0
100
AcDbVertex
100
AcDbPolyFaceMeshVertex
 10
165.578306902533
 20
201.1079921242129
 30
5.000000000000126
 70
   192
  0
VERTEX
  5
562
330
55F
100
AcDbEntity
  8
0
100
AcDbVertex
100
AcDbPolyFaceMeshVertex
 10
165.6531196926217
 20
200.6311703955557
 30
0.000000000000361
 70
   192
  0
VERTEX
  5
563
330
55F
100
AcDbEntity
  8
0
100
AcDbVertex
100
AcDbPolyFaceMeshVertex
 10
164.8051537304559
 20
203.6013972085693
 30
5.000000000000126
 70
   192
  0
VERTEX
  5
564
330
55F
100
AcDbEntity
  8
0
100
AcDbFaceRecord
 10
0.0
 20
0.0
 30
0.0
 70
   128
 71
    -1
 72
     2
 73
     3
  0
VERTEX
  5
565
330
55F
100
AcDbEntity
  8
0
100
AcDbFaceRecord
 10
0.0
 20
0.0
 30
0.0
 70
   128
 71
    -2
 72
     1
 73
     4
  0
SEQEND
  5
566
330
55F
100
AcDbEntity
  8
0
  0
POLYLINE
  5
567
330
1F
100
AcDbEntity
  8
0
100
AcDbPolyFaceMesh
 66
     1
 10
0.0
 20
0.0
 30
0.0
 70
    64
 71
     4
 72
     2
  0
VERTEX
  5
568
330
567
100
AcDbEntity
  8
0
100
AcDbVertex
100
AcDbPolyFaceMeshVertex
 10
165.0867600889735
 20
320.3272328143115
 30
5.000000000000126
 70
   192
  0
VERTEX
  5
569
330
567
100
AcDbEntity
  8
0
100
AcDbVertex
100
AcDbPolyFaceMeshVertex
 10
155.3053503309298
 20
318.1607729345459
 30
0.000000000000361
 70
   192
  0
VERTEX
  5
56A
330
567
100
AcDbEntity
  8
0
100
AcDbVertex
100
AcDbPolyFaceMeshVertex
 10
160.2334620456203
 20
319.0055920856357
 30
0.0000000000002707
 70
   192
  0
VERTEX
  5
56B
330
567
100
AcDbEntity
  8
0
100
AcDbVertex
100
AcDbPolyFaceMeshVertex
 10
155.230537540841
 20
318.6375946632033
 30
5.000000000000306
 70
   192
  0
VERTEX
  5
56C
330
567
100
AcDbEntity
  8
0
100
AcDbFaceRecord
 10
0.0
 20
0.0
 30
0.0
 70
   128
 71
    -1
 72
     2
 73
     3
  0
VERTEX
  5
56D
330
567
100
AcDbEntity
  8
0
100
AcDbFaceRecord
 10
0.0
 20
0.0
 30
0.0
 70
   128
 71
    -2
 72
     1
 73
     4
  0
SEQEND
  5
56E
330
567
100
AcDbEntity
  8
0
  0
POLYLINE
  5
56F
330
1F
100
AcDbEntity
  8
0
100
AcDbPolyFaceMesh
 66
     1
 10
0.0
 20
0.0
 30
0.0
 70
    64
 71
     4
 72
     2
  0
VERTEX
  5
570
330
56F
100
AcDbEntity
  8
0
100
AcDbVertex
100
AcDbPolyFaceMeshVertex
 10
165.6531196926217
 20
200.6311703955557
 30
0.000000000000361
 70
   192
  0
VERTEX
  5
571
330
56F
100
AcDbEntity
  8
0
100
AcDbVertex
100
AcDbPolyFaceMeshVertex
 10
166.9704562421062
 20
198.8996545235478
 30
5.000000000000306
 70
   192
  0
VERTEX
  5
572
330
56F
100
AcDbEntity
  8
0
100
AcDbVertex
100
AcDbPolyFaceMeshVertex
 10
167.0452690321954
 20
198.4228327948905
 30
0.0000000000002707
 70
   192
  0
VERTEX
  5
573
330
56F
100
AcDbEntity
  8
0
100
AcDbVertex
100
AcDbPolyFaceMeshVertex
 10
165.578306902533
 20
201.1079921242129
 30
5.000000000000126
 70
   192
  0
VERTEX
  5
574
330
56F
100
AcDbEntity
  8
0
100
AcDbFaceRecord
 10
0.0
 20
0.0
 30
0.0
 70
   128
 71
    -1
 72
     2
 73
     3
  0
VERTEX
  5
575
330
56F
100
AcDbEntity
  8
0
100
AcDbFaceRecord
 10
0.0
 20
0.0
 30
0.0
 70
   128
 71
    -2
 72
     1
 73
     4
  0
SEQEND
  5
576
330
56F
100
AcDbEntity
  8
0
  0
POLYLINE
  5
577
330
1F
100
AcDbEntity
  8
0
100
AcDbPolyFaceMesh
 66
     1
 10
0.0
 20
0.0
 30
0.0
 70
    64
 71
     4
 72
     2
  0
VERTEX
  5
578
330
577
100
AcDbEntity
  8
0
100
AcDbVertex
100
AcDbPolyFaceMeshVertex
 10
152.7371324564851
 20
317.8644414911259
 30
5.000000000000036
 70
   192
  0
VERTEX
  5
579
330
577
100
AcDbEntity
  8
0
100
AcDbVertex
100
AcDbPolyFaceMeshVertex
 10
150.6036076459083
 20
315.9954704228952
 30
0.0000000000004512
 70
   192
  0
VERTEX
  5
57A
330
577
100
AcDbEntity
  8
0
100
AcDbVertex
100
AcDbPolyFaceMeshVertex
 10
152.8119452465735
 20
317.3876197624687
 30
0.0000000000002707
 70
   192
  0
VERTEX
  5
57B
330
577
100
AcDbEntity
  8
0
100
AcDbVertex
100
AcDbPolyFaceMeshVertex
 10
150.52879485582
 20
316.4722921515526
 30
5.000000000000036
 70
   192
  0
VERTEX
  5
57C
330
577
100
AcDbEntity
  8
0
100
AcDbFaceRecord
 10
0.0
 20
0.0
 30
0.0
 70
   128
 71
    -1
 72
     2
 73
     3
  0
VERTEX
  5
57D
330
577
100
AcDbEntity
  8
0
100
AcDbFaceRecord
 10
0.0
 20
0.0
 30
0.0
 70
   128
 71
    -2
 72
     1
 73
     4
  0
SEQEND
  5
57E
330
577
100
AcDbEntity
  8
0
  0
POLYLINE
  5
57F
330
1F
100
AcDbEntity
  8
0
100
AcDbPolyFaceMesh
 66
     1
 10
0.0
 20
0.0
 30
0.0
 70
    64
 71
     3
 72
     1
  0
VERTEX
  5
580
330
57F
100
AcDbEntity
  8
0
100
AcDbVertex
100
AcDbPolyFaceMeshVertex
 10
18.19845504000587
 20
-2.855317018971067
 30
4.999999999999946
 70
   192
  0
VERTEX
  5
581
330
57F
100
AcDbEntity
  8
0
100
AcDbVertex
100
AcDbPolyFaceMeshVertex
 10
4.227958527057805
 20
4.397300519405107
 30
0.0000000000004512
 70
   192
  0
VERTEX
  5
582
330
57F
100
AcDbEntity
  8
0
100
AcDbVertex
100
AcDbPolyFaceMeshVertex
 10
17.47579261494217
 20
2.286246423470606
 30
0.000000000000361
 70
   192
  0
VERTEX
  5
583
330
57F
100
AcDbEntity
  8
0
100
AcDbFaceRecord
 10
0.0
 20
0.0
 30
0.0
 70
   128
 71
     1
 72
     2
 73
     3
  0
SEQEND
  5
584
330
57F
100
AcDbEntity
  8
0
  0
POLYLINE
  5
585
330
1F
100
AcDbEntity
  8
0
100
AcDbPolyFaceMesh
 66
     1
 10
0.0
 20
0.0
 30
0.0
 70
    64
 71
     3
 72
     1
  0
VERTEX
  5
586
330
585
100
AcDbEntity
  8
0
100
AcDbVertex
100
AcDbPolyFaceMeshVertex
 10
18.19845504000587
 20
-2.855317018971067
 30
4.999999999999946
 70
   192
  0
VERTEX
  5
587
330
585
100
AcDbEntity
  8
0
100
AcDbVertex
100
AcDbPolyFaceMeshVertex
 10
-0.0000000000010829
 20
0.0
 30
4.999999999999946
 70
   192
  0
VERTEX
  5
588
330
585
100
AcDbEntity
  8
0
100
AcDbVertex
100
AcDbPolyFaceMeshVertex
 10
4.227958527057805
 20
4.397300519405107
 30
0.0000000000004512
 70
   192
  0
VERTEX
  5
589
330
585
100
AcDbEntity
  8
0
100
AcDbFaceRecord
 10
0.0
 20
0.0
 30
0.0
 70
   128
 71
     1
 72
     2
 73
     3
  0
SEQEND
  5
58A
330
585
100
AcDbEntity
  8
0
  0
POLYLINE
  5
58B
330
1F
100
AcDbEntity
  8
0
100
AcDbPolyFaceMesh
 66
     1
 10
0.0
 20
0.0
 30
0.0
 70
    64
 71
     3
 72
     1
  0
VERTEX
  5
58C
330
58B
100
AcDbEntity
  8
0
100
AcDbVertex
100
AcDbPolyFaceMeshVertex
 10
146.8237480626611
 20
-8.318042914819465
 30
5.000000000000397
 70
   192
  0
VERTEX
  5
58D
330
58B
100
AcDbEntity
  8
0
100
AcDbVertex
100
AcDbPolyFaceMeshVertex
 10
127.6352526377936
 20
-4.219051131717289
 30
0.000000000000361
 70
   192
  0
VERTEX
  5
58E
330
58B
100
AcDbEntity
  8
0
100
AcDbVertex
100
AcDbPolyFaceMeshVertex
 10
146.03387424967
 20
-3.481748494960786
 30
0.0000000000002707
 70
   192
  0
VERTEX
  5
58F
330
58B
100
AcDbEntity
  8
0
100
AcDbFaceRecord
 10
0.0
 20
0.0
 30
0.0
 70
   128
 71
     1
 72
     2
 73
     3
  0
SEQEND
  5
590
330
58B
100
AcDbEntity
  8
0
  0
POLYLINE
  5
591
330
1F
100
AcDbEntity
  8
0
100
AcDbPolyFaceMesh
 66
     1
 10
0.0
 20
0.0
 30
0.0
 70
    64
 71
     3
 72
     1
  0
VERTEX
  5
592
330
591
100
AcDbEntity
  8
0
100
AcDbVertex
100
AcDbPolyFaceMeshVertex
 10
128.4192475475243
 20
-9.099683439801247
 30
5.000000000000397
 70
   192
  0
VERTEX
  5
593
330
591
100
AcDbEntity
  8
0
100
AcDbVertex
100
AcDbPolyFaceMeshVertex
 10
127.6352526377936
 20
-4.219051131717289
 30
0.000000000000361
 70
   192
  0
VERTEX
  5
594
330
591
100
AcDbEntity
  8
0
100
AcDbVertex
100
AcDbPolyFaceMeshVertex
 10
146.8237480626611
 20
-8.318042914819465
 30
5.000000000000397
 70
   192
  0
VERTEX
  5
595
330
591
100
AcDbEntity
  8
0
100
AcDbFaceRecord
 10
0.0
 20
0.0
 30
0.0
 70
   128
 71
     1
 72
     2
 73
     3
  0
SEQEND
  5
596
330
591
100
AcDbEntity
  8
0
  0
POLYLINE
  5
597
330
1F
100
AcDbEntity
  8
0
100
AcDbPolyFaceMesh
 66
     1
 10
0.0
 20
0.0
 30
0.0
 70
    64
 71
     3
 72
     1
  0
VERTEX
  5
598
330
597
100
AcDbEntity
  8
0
100
AcDbVertex
100
AcDbPolyFaceMeshVertex
 10
109.9999999999991
 20
-9.360299834039393
 30
5.000000000000306
 70
   192
  0
VERTEX
  5
599
330
597
100
AcDbEntity
  8
0
100
AcDbVertex
100
AcDbPolyFaceMeshVertex
 10
90.81226588253485
 20
-4.130962942106907
 30
0.0000000000005414
 70
   192
  0
VERTEX
  5
59A
330
597
100
AcDbEntity
  8
0
100
AcDbVertex
100
AcDbPolyFaceMeshVertex
 10
109.2231360743823
 20
-4.435513716363966
 30
0.0000000000004512
 70
   192
  0
VERTEX
  5
59B
330
597
100
AcDbEntity
  8
0
100
AcDbFaceRecord
 10
0.0
 20
0.0
 30
0.0
 70
   128
 71
     1
 72
     2
 73
     3
  0
SEQEND
  5
59C
330
597
100
AcDbEntity
  8
0
  0
POLYLINE
  5
59D
330
1F
100
AcDbEntity
  8
0
100
AcDbPolyFaceMesh
 66
     1
 10
0.0
 20
0.0
 30
0.0
 70
    64
 71
     3
 72
     1
  0
VERTEX
  5
59E
330
59D
100
AcDbEntity
  8
0
100
AcDbVertex
100
AcDbPolyFaceMeshVertex
 10
109.9999999999991
 20
-9.360299834039393
 30
5.000000000000306
 70
   192
  0
VERTEX
  5
59F
330
59D
100
AcDbEntity
  8
0
100
AcDbVertex
100
AcDbPolyFaceMeshVertex
 10
91.58075245247377
 20
-9.099683439801607
 30
5.000000000000217
 70
   192
  0
VERTEX
  5
5A0
330
59D
100
AcDbEntity
  8
0
100
AcDbVertex
100
AcDbPolyFaceMeshVertex
 10
90.81226588253485
 20
-4.130962942106907
 30
0.0000000000005414
 70
   192
  0
VERTEX
  5
5A1
330
59D
100
AcDbEntity
  8
0
100
AcDbFaceRecord
 10
0.0
 20
0.0
 30
0.0
 70
   128
 71
     1
 72
     2
 73
     3
  0
SEQEND
  5
5A2
330
59D
100
AcDbEntity
  8
0
  0
POLYLINE
  5
5A3
330
1F
100
AcDbEntity
  8
0
100
AcDbPolyFaceMesh
 66
     1
 10
0.0
 20
0.0
 30
0.0
 70
    64
 71
     3
 72
     1
  0
VERTEX
  5
5A4
330
5A3
100
AcDbEntity
  8
0
100
AcDbVertex
100
AcDbPolyFaceMeshVertex
 10
36.47040930159419
 20
-5.194609344532038
 30
5.000000000000306
 70
   192
  0
VERTEX
  5
5A5
330
5A3
100
AcDbEntity
  8
0
100
AcDbVertex
100
AcDbPolyFaceMeshVertex
 10
17.47579261494217
 20
2.286246423470606
 30
0.000000000000361
 70
   192
  0
VERTEX
  5
5A6
330
5A3
100
AcDbEntity
  8
0
100
AcDbVertex
100
AcDbPolyFaceMeshVertex
 10
35.73446099989422
 20
-0.0957529895331696
 30
0.000000000000361
 70
   192
  0
VERTEX
  5
5A7
330
5A3
100
AcDbEntity
  8
0
100
AcDbFaceRecord
 10
0.0
 20
0.0
 30
0.0
 70
   128
 71
     1
 72
     2
 73
     3
  0
SEQEND
  5
5A8
330
5A3
100
AcDbEntity
  8
0
  0
POLYLINE
  5
5A9
330
1F
100
AcDbEntity
  8
0
100
AcDbPolyFaceMesh
 66
     1
 10
0.0
 20
0.0
 30
0.0
 70
    64
 71
     3
 72
     1
  0
VERTEX
  5
5AA
330
5A9
100
AcDbEntity
  8
0
100
AcDbVertex
100
AcDbPolyFaceMeshVertex
 10
36.47040930159419
 20
-5.194609344532038
 30
5.000000000000306
 70
   192
  0
VERTEX
  5
5AB
330
5A9
100
AcDbEntity
  8
0
100
AcDbVertex
100
AcDbPolyFaceMeshVertex
 10
18.19845504000587
 20
-2.855317018971067
 30
4.999999999999946
 70
   192
  0
VERTEX
  5
5AC
330
5A9
100
AcDbEntity
  8
0
100
AcDbVertex
100
AcDbPolyFaceMeshVertex
 10
17.47579261494217
 20
2.286246423470606
 30
0.000000000000361
 70
   192
  0
VERTEX
  5
5AD
330
5A9
100
AcDbEntity
  8
0
100
AcDbFaceRecord
 10
0.0
 20
0.0
 30
0.0
 70
   128
 71
     1
 72
     2
 73
     3
  0
SEQEND
  5
5AE
330
5A9
100
AcDbEntity
  8
0
  0
POLYLINE
  5
5AF
330
1F
100
AcDbEntity
  8
0
100
AcDbPolyFaceMesh
 66
     1
 10
0.0
 20
0.0
 30
0.0
 70
    64
 71
     3
 72
     1
  0
VERTEX
  5
5B0
330
5AF
100
AcDbEntity
  8
0
100
AcDbVertex
100
AcDbPolyFaceMeshVertex
 10
219.9999999999985
 20
0.0000000000000902
 30
4.999999999999946
 70
   192
  0
VERTEX
  5
5B1
330
5AF
100
AcDbEntity
  8
0
100
AcDbVertex
100
AcDbPolyFaceMeshVertex
 10
201.0015889566226
 20
1.847214813840571
 30
0.0000000000002707
 70
   192
  0
VERTEX
  5
5B2
330
5AF
100
AcDbEntity
  8
0
100
AcDbVertex
100
AcDbPolyFaceMeshVertex
 10
214.2593724002449
 20
3.894862136805923
 30
0.0000000000005414
 70
   192
  0
VERTEX
  5
5B3
330
5AF
100
AcDbEntity
  8
0
100
AcDbFaceRecord
 10
0.0
 20
0.0
 30
0.0
 70
   128
 71
     1
 72
     2
 73
     3
  0
SEQEND
  5
5B4
330
5AF
100
AcDbEntity
  8
0
  0
POLYLINE
  5
5B5
330
1F
100
AcDbEntity
  8
0
100
AcDbPolyFaceMesh
 66
     1
 10
0.0
 20
0.0
 30
0.0
 70
    64
 71
     3
 72
     1
  0
VERTEX
  5
5B6
330
5B5
100
AcDbEntity
  8
0
100
AcDbVertex
100
AcDbPolyFaceMeshVertex
 10
201.8015449599925
 20
-2.855317018970977
 30
5.000000000000487
 70
   192
  0
VERTEX
  5
5B7
330
5B5
100
AcDbEntity
  8
0
100
AcDbVertex
100
AcDbPolyFaceMeshVertex
 10
201.0015889566226
 20
1.847214813840571
 30
0.0000000000002707
 70
   192
  0
VERTEX
  5
5B8
330
5B5
100
AcDbEntity
  8
0
100
AcDbVertex
100
AcDbPolyFaceMeshVertex
 10
219.9999999999985
 20
0.0000000000000902
 30
4.999999999999946
 70
   192
  0
VERTEX
  5
5B9
330
5B5
100
AcDbEntity
  8
0
100
AcDbFaceRecord
 10
0.0
 20
0.0
 30
0.0
 70
   128
 71
     1
 72
     2
 73
     3
  0
SEQEND
  5
5BA
330
5B5
100
AcDbEntity
  8
0
  0
POLYLINE
  5
5BB
330
1F
100
AcDbEntity
  8
0
100
AcDbPolyFaceMesh
 66
     1
 10
0.0
 20
0.0
 30
0.0
 70
    64
 71
     3
 72
     1
  0
VERTEX
  5
5BC
330
5BB
100
AcDbEntity
  8
0
100
AcDbVertex
100
AcDbPolyFaceMeshVertex
 10
54.80123368003803
 20
-7.016004065229448
 30
4.999999999999946
 70
   192
  0
VERTEX
  5
5BD
330
5BB
100
AcDbEntity
  8
0
100
AcDbVertex
100
AcDbPolyFaceMeshVertex
 10
35.73446099989422
 20
-0.0957529895331696
 30
0.000000000000361
 70
   192
  0
VERTEX
  5
5BE
330
5BB
100
AcDbEntity
  8
0
100
AcDbVertex
100
AcDbPolyFaceMeshVertex
 10
54.05321311492199
 20
-1.960213593385109
 30
0.0000000000002707
 70
   192
  0
VERTEX
  5
5BF
330
5BB
100
AcDbEntity
  8
0
100
AcDbFaceRecord
 10
0.0
 20
0.0
 30
0.0
 70
   128
 71
     1
 72
     2
 73
     3
  0
SEQEND
  5
5C0
330
5BB
100
AcDbEntity
  8
0
  0
POLYLINE
  5
5C1
330
1F
100
AcDbEntity
  8
0
100
AcDbPolyFaceMesh
 66
     1
 10
0.0
 20
0.0
 30
0.0
 70
    64
 71
     3
 72
     1
  0
VERTEX
  5
5C2
330
5C1
100
AcDbEntity
  8
0
100
AcDbVertex
100
AcDbPolyFaceMeshVertex
 10
54.80123368003803
 20
-7.016004065229448
 30
4.999999999999946
 70
   192
  0
VERTEX
  5
5C3
330
5C1
100
AcDbEntity
  8
0
100
AcDbVertex
100
AcDbPolyFaceMeshVertex
 10
36.47040930159419
 20
-5.194609344532038
 30
5.000000000000306
 70
   192
  0
VERTEX
  5
5C4
330
5C1
100
AcDbEntity
  8
0
100
AcDbVertex
100
AcDbPolyFaceMeshVertex
 10
35.73446099989422
 20
-0.0957529895331696
 30
0.000000000000361
 70
   192
  0
VERTEX
  5
5C5
330
5C1
100
AcDbEntity
  8
0
100
AcDbFaceRecord
 10
0.0
 20
0.0
 30
0.0
 70
   128
 71
     1
 72
     2
 73
     3
  0
SEQEND
  5
5C6
330
5C1
100
AcDbEntity
  8
0
  0
POLYLINE
  5
5C7
330
1F
100
AcDbEntity
  8
0
100
AcDbPolyFaceMesh
 66
     1
 10
0.0
 20
0.0
 30
0.0
 70
    64
 71
     3
 72
     1
  0
VERTEX
  5
5C8
330
5C7
100
AcDbEntity
  8
0
100
AcDbVertex
100
AcDbPolyFaceMeshVertex
 10
201.8015449599925
 20
-2.855317018970977
 30
5.000000000000487
 70
   192
  0
VERTEX
  5
5C9
330
5C7
100
AcDbEntity
  8
0
100
AcDbVertex
100
AcDbPolyFaceMeshVertex
 10
182.7317331425762
 20
-0.4474008248046168
 30
0.000000000000361
 70
   192
  0
VERTEX
  5
5CA
330
5C7
100
AcDbEntity
  8
0
100
AcDbVertex
100
AcDbPolyFaceMeshVertex
 10
201.0015889566226
 20
1.847214813840571
 30
0.0000000000002707
 70
   192
  0
VERTEX
  5
5CB
330
5C7
100
AcDbEntity
  8
0
100
AcDbFaceRecord
 10
0.0
 20
0.0
 30
0.0
 70
   128
 71
     1
 72
     2
 73
     3
  0
SEQEND
  5
5CC
330
5C7
100
AcDbEntity
  8
0
  0
POLYLINE
  5
5CD
330
1F
100
AcDbEntity
  8
0
100
AcDbPolyFaceMesh
 66
     1
 10
0.0
 20
0.0
 30
0.0
 70
    64
 71
     3
 72
     1
  0
VERTEX
  5
5CE
330
5CD
100
AcDbEntity
  8
0
100
AcDbVertex
100
AcDbPolyFaceMeshVertex
 10
201.8015449599925
 20
-2.855317018970977
 30
5.000000000000487
 70
   192
  0
VERTEX
  5
5CF
330
5CD
100
AcDbEntity
  8
0
100
AcDbVertex
100
AcDbPolyFaceMeshVertex
 10
183.5295906984055
 20
-5.194609344531767
 30
4.999999999999946
 70
   192
  0
VERTEX
  5
5D0
330
5CD
100
AcDbEntity
  8
0
100
AcDbVertex
100
AcDbPolyFaceMeshVertex
 10
182.7317331425762
 20
-0.4474008248046168
 30
0.000000000000361
 70
   192
  0
VERTEX
  5
5D1
330
5CD
100
AcDbEntity
  8
0
100
AcDbFaceRecord
 10
0.0
 20
0.0
 30
0.0
 70
   128
 71
     1
 72
     2
 73
     3
  0
SEQEND
  5
5D2
330
5CD
100
AcDbEntity
  8
0
  0
POLYLINE
  5
5D3
330
1F
100
AcDbEntity
  8
0
100
AcDbPolyFaceMesh
 66
     1
 10
0.0
 20
0.0
 30
0.0
 70
    64
 71
     3
 72
     1
  0
VERTEX
  5
5D4
330
5D3
100
AcDbEntity
  8
0
100
AcDbVertex
100
AcDbPolyFaceMeshVertex
 10
73.17625193733738
 20
-8.318042914819374
 30
4.999999999999946
 70
   192
  0
VERTEX
  5
5D5
330
5D3
100
AcDbEntity
  8
0
100
AcDbVertex
100
AcDbPolyFaceMeshVertex
 10
54.05321311492199
 20
-1.960213593385109
 30
0.0000000000002707
 70
   192
  0
VERTEX
  5
5D6
330
5D3
100
AcDbEntity
  8
0
100
AcDbVertex
100
AcDbPolyFaceMeshVertex
 10
72.4173823874627
 20
-3.305642641931713
 30
0.0000000000002707
 70
   192
  0
VERTEX
  5
5D7
330
5D3
100
AcDbEntity
  8
0
100
AcDbFaceRecord
 10
0.0
 20
0.0
 30
0.0
 70
   128
 71
     1
 72
     2
 73
     3
  0
SEQEND
  5
5D8
330
5D3
100
AcDbEntity
  8
0
  0
POLYLINE
  5
5D9
330
1F
100
AcDbEntity
  8
0
100
AcDbPolyFaceMesh
 66
     1
 10
0.0
 20
0.0
 30
0.0
 70
    64
 71
     3
 72
     1
  0
VERTEX
  5
5DA
330
5D9
100
AcDbEntity
  8
0
100
AcDbVertex
100
AcDbPolyFaceMeshVertex
 10
73.17625193733738
 20
-8.318042914819374
 30
4.999999999999946
 70
   192
  0
VERTEX
  5
5DB
330
5D9
100
AcDbEntity
  8
0
100
AcDbVertex
100
AcDbPolyFaceMeshVertex
 10
54.80123368003803
 20
-7.016004065229448
 30
4.999999999999946
 70
   192
  0
VERTEX
  5
5DC
330
5D9
100
AcDbEntity
  8
0
100
AcDbVertex
100
AcDbPolyFaceMeshVertex
 10
54.05321311492199
 20
-1.960213593385109
 30
0.0000000000002707
 70
   192
  0
VERTEX
  5
5DD
330
5D9
100
AcDbEntity
  8
0
100
AcDbFaceRecord
 10
0.0
 20
0.0
 30
0.0
 70
   128
 71
     1
 72
     2
 73
     3
  0
SEQEND
  5
5DE
330
5D9
100
AcDbEntity
  8
0
  0
POLYLINE
  5
5DF
330
1F
100
AcDbEntity
  8
0
100
AcDbPolyFaceMesh
 66
     1
 10
0.0
 20
0.0
 30
0.0
 70
    64
 71
     3
 72
     1
  0
VERTEX
  5
5E0
330
5DF
100
AcDbEntity
  8
0
100
AcDbVertex
100
AcDbPolyFaceMeshVertex
 10
183.5295906984055
 20
-5.194609344531767
 30
4.999999999999946
 70
   192
  0
VERTEX
  5
5E1
330
5DF
100
AcDbEntity
  8
0
100
AcDbVertex
100
AcDbPolyFaceMeshVertex
 10
164.4042703913994
 20
-2.224196113914515
 30
0.0000000000004512
 70
   192
  0
VERTEX
  5
5E2
330
5DF
100
AcDbEntity
  8
0
100
AcDbVertex
100
AcDbPolyFaceMeshVertex
 10
182.7317331425762
 20
-0.4474008248046168
 30
0.000000000000361
 70
   192
  0
VERTEX
  5
5E3
330
5DF
100
AcDbEntity
  8
0
100
AcDbFaceRecord
 10
0.0
 20
0.0
 30
0.0
 70
   128
 71
     1
 72
     2
 73
     3
  0
SEQEND
  5
5E4
330
5DF
100
AcDbEntity
  8
0
  0
POLYLINE
  5
5E5
330
1F
100
AcDbEntity
  8
0
100
AcDbPolyFaceMesh
 66
     1
 10
0.0
 20
0.0
 30
0.0
 70
    64
 71
     3
 72
     1
  0
VERTEX
  5
5E6
330
5E5
100
AcDbEntity
  8
0
100
AcDbVertex
100
AcDbPolyFaceMeshVertex
 10
165.1987663199608
 20
-7.016004065229538
 30
5.000000000000036
 70
   192
  0
VERTEX
  5
5E7
330
5E5
100
AcDbEntity
  8
0
100
AcDbVertex
100
AcDbPolyFaceMeshVertex
 10
164.4042703913994
 20
-2.224196113914515
 30
0.0000000000004512
 70
   192
  0
VERTEX
  5
5E8
330
5E5
100
AcDbEntity
  8
0
100
AcDbVertex
100
AcDbPolyFaceMeshVertex
 10
183.5295906984055
 20
-5.194609344531767
 30
4.999999999999946
 70
   192
  0
VERTEX
  5
5E9
330
5E5
100
AcDbEntity
  8
0
100
AcDbFaceRecord
 10
0.0
 20
0.0
 30
0.0
 70
   128
 71
     1
 72
     2
 73
     3
  0
SEQEND
  5
5EA
330
5E5
100
AcDbEntity
  8
0
  0
POLYLINE
  5
5EB
330
1F
100
AcDbEntity
  8
0
100
AcDbPolyFaceMesh
 66
     1
 10
0.0
 20
0.0
 30
0.0
 70
    64
 71
     3
 72
     1
  0
VERTEX
  5
5EC
330
5EB
100
AcDbEntity
  8
0
100
AcDbVertex
100
AcDbPolyFaceMeshVertex
 10
165.1987663199608
 20
-7.016004065229538
 30
5.000000000000036
 70
   192
  0
VERTEX
  5
5ED
330
5EB
100
AcDbEntity
  8
0
100
AcDbVertex
100
AcDbPolyFaceMeshVertex
 10
146.03387424967
 20
-3.481748494960786
 30
0.0000000000002707
 70
   192
  0
VERTEX
  5
5EE
330
5EB
100
AcDbEntity
  8
0
100
AcDbVertex
100
AcDbPolyFaceMeshVertex
 10
164.4042703913994
 20
-2.224196113914515
 30
0.0000000000004512
 70
   192
  0
VERTEX
  5
5EF
330
5EB
100
AcDbEntity
  8
0
100
AcDbFaceRecord
 10
0.0
 20
0.0
 30
0.0
 70
   128
 71
     1
 72
     2
 73
     3
  0
SEQEND
  5
5F0
330
5EB
100
AcDbEntity
  8
0
  0
POLYLINE
  5
5F1
330
1F
100
AcDbEntity
  8
0
100
AcDbPolyFaceMesh
 66
     1
 10
0.0
 20
0.0
 30
0.0
 70
    64
 71
     3
 72
     1
  0
VERTEX
  5
5F2
330
5F1
100
AcDbEntity
  8
0
100
AcDbVertex
100
AcDbPolyFaceMeshVertex
 10
146.8237480626611
 20
-8.318042914819465
 30
5.000000000000397
 70
   192
  0
VERTEX
  5
5F3
330
5F1
100
AcDbEntity
  8
0
100
AcDbVertex
100
AcDbPolyFaceMeshVertex
 10
146.03387424967
 20
-3.481748494960786
 30
0.0000000000002707
 70
   192
  0
VERTEX
  5
5F4
330
5F1
100
AcDbEntity
  8
0
100
AcDbVertex
100
AcDbPolyFaceMeshVertex
 10
165.1987663199608
 20
-7.016004065229538
 30
5.000000000000036
 70
   192
  0
VERTEX
  5
5F5
330
5F1
100
AcDbEntity
  8
0
100
AcDbFaceRecord
 10
0.0
 20
0.0
 30
0.0
 70
   128
 71
     1
 72
     2
 73
     3
  0
SEQEND
  5
5F6
330
5F1
100
AcDbEntity
  8
0
  0
POLYLINE
  5
5F7
330
1F
100
AcDbEntity
  8
0
100
AcDbPolyFaceMesh
 66
     1
 10
0.0
 20
0.0
 30
0.0
 70
    64
 71
     3
 72
     1
  0
VERTEX
  5
5F8
330
5F7
100
AcDbEntity
  8
0
100
AcDbVertex
100
AcDbPolyFaceMeshVertex
 10
91.58075245247377
 20
-9.099683439801607
 30
5.000000000000217
 70
   192
  0
VERTEX
  5
5F9
330
5F7
100
AcDbEntity
  8
0
100
AcDbVertex
100
AcDbPolyFaceMeshVertex
 10
72.4173823874627
 20
-3.305642641931713
 30
0.0000000000002707
 70
   192
  0
VERTEX
  5
5FA
330
5F7
100
AcDbEntity
  8
0
100
AcDbVertex
100
AcDbPolyFaceMeshVertex
 10
90.81226588253485
 20
-4.130962942106907
 30
0.0000000000005414
 70
   192
  0
VERTEX
  5
5FB
330
5F7
100
AcDbEntity
  8
0
100
AcDbFaceRecord
 10
0.0
 20
0.0
 30
0.0
 70
   128
 71
     1
 72
     2
 73
     3
  0
SEQEND
  5
5FC
330
5F7
100
AcDbEntity
  8
0
  0
POLYLINE
  5
5FD
330
1F
100
AcDbEntity
  8
0
100
AcDbPolyFaceMesh
 66
     1
 10
0.0
 20
0.0
 30
0.0
 70
    64
 71
     3
 72
     1
  0
VERTEX
  5
5FE
330
5FD
100
AcDbEntity
  8
0
100
AcDbVertex
100
AcDbPolyFaceMeshVertex
 10
91.58075245247377
 20
-9.099683439801607
 30
5.000000000000217
 70
   192
  0
VERTEX
  5
5FF
330
5FD
100
AcDbEntity
  8
0
100
AcDbVertex
100
AcDbPolyFaceMeshVertex
 10
73.17625193733738
 20
-8.318042914819374
 30
4.999999999999946
 70
   192
  0
VERTEX
  5
600
330
5FD
100
AcDbEntity
  8
0
100
AcDbVertex
100
AcDbPolyFaceMeshVertex
 10
72.4173823874627
 20
-3.305642641931713
 30
0.0000000000002707
 70
   192
  0
VERTEX
  5
601
330
5FD
100
AcDbEntity
  8
0
100
AcDbFaceRecord
 10
0.0
 20
0.0
 30
0.0
 70
   128
 71
     1
 72
     2
 73
     3
  0
SEQEND
  5
602
330
5FD
100
AcDbEntity
  8
0
  0
POLYLINE
  5
603
330
1F
100
AcDbEntity
  8
0
100
AcDbPolyFaceMesh
 66
     1
 10
0.0
 20
0.0
 30
0.0
 70
    64
 71
     3
 72
     1
  0
VERTEX
  5
604
330
603
100
AcDbEntity
  8
0
100
AcDbVertex
100
AcDbPolyFaceMeshVertex
 10
128.4192475475243
 20
-9.099683439801247
 30
5.000000000000397
 70
   192
  0
VERTEX
  5
605
330
603
100
AcDbEntity
  8
0
100
AcDbVertex
100
AcDbPolyFaceMeshVertex
 10
109.2231360743823
 20
-4.435513716363966
 30
0.0000000000004512
 70
   192
  0
VERTEX
  5
606
330
603
100
AcDbEntity
  8
0
100
AcDbVertex
100
AcDbPolyFaceMeshVertex
 10
127.6352526377936
 20
-4.219051131717289
 30
0.000000000000361
 70
   192
  0
VERTEX
  5
607
330
603
100
AcDbEntity
  8
0
100
AcDbFaceRecord
 10
0.0
 20
0.0
 30
0.0
 70
   128
 71
     1
 72
     2
 73
     3
  0
SEQEND
  5
608
330
603
100
AcDbEntity
  8
0
  0
POLYLINE
  5
609
330
1F
100
AcDbEntity
  8
0
100
AcDbPolyFaceMesh
 66
     1
 10
0.0
 20
0.0
 30
0.0
 70
    64
 71
     3
 72
     1
  0
VERTEX
  5
60A
330
609
100
AcDbEntity
  8
0
100
AcDbVertex
100
AcDbPolyFaceMeshVertex
 10
128.4192475475243
 20
-9.099683439801247
 30
5.000000000000397
 70
   192
  0
VERTEX
  5
60B
330
609
100
AcDbEntity
  8
0
100
AcDbVertex
100
AcDbPolyFaceMeshVertex
 10
109.9999999999991
 20
-9.360299834039393
 30
5.000000000000306
 70
   192
  0
VERTEX
  5
60C
330
609
100
AcDbEntity
  8
0
100
AcDbVertex
100
AcDbPolyFaceMeshVertex
 10
109.2231360743823
 20
-4.435513716363966
 30
0.0000000000004512
 70
   192
  0
VERTEX
  5
60D
330
609
100
AcDbEntity
  8
0
100
AcDbFaceRecord
 10
0.0
 20
0.0
 30
0.0
 70
   128
 71
     1
 72
     2
 73
     3
  0
SEQEND
  5
60E
330
609
100
AcDbEntity
  8
0
  0
POLYLINE
  5
60F
330
1F
100
AcDbEntity
  8
0
100
AcDbPolyFaceMesh
 66
     1
 10
0.0
 20
0.0
 30
0.0
 70
    64
 71
     4
 72
     2
  0
VERTEX
  5
610
330
60F
100
AcDbEntity
  8
0
100
AcDbVertex
100
AcDbPolyFaceMeshVertex
 10
215.7759046222282
 20
24.6405563703315
 30
5.000000000000487
 70
   192
  0
VERTEX
  5
611
330
60F
100
AcDbEntity
  8
0
100
AcDbVertex
100
AcDbPolyFaceMeshVertex
 10
214.2593724002449
 20
3.894862136805923
 30
0.0000000000005414
 70
   192
  0
VERTEX
  5
612
330
60F
100
AcDbEntity
  8
0
100
AcDbVertex
100
AcDbPolyFaceMeshVertex
 10
210.9226065788754
 20
23.31891564165543
 30
0.0000000000002707
 70
   192
  0
VERTEX
  5
613
330
60F
100
AcDbEntity
  8
0
100
AcDbVertex
100
AcDbPolyFaceMeshVertex
 10
219.9999999999985
 20
0.0000000000000902
 30
4.999999999999946
 70
   192
  0
VERTEX
  5
614
330
60F
100
AcDbEntity
  8
0
100
AcDbFaceRecord
 10
0.0
 20
0.0
 30
0.0
 70
   128
 71
    -1
 72
     2
 73
     3
  0
VERTEX
  5
615
330
60F
100
AcDbEntity
  8
0
100
AcDbFaceRecord
 10
0.0
 20
0.0
 30
0.0
 70
   128
 71
    -2
 72
     1
 73
     4
  0
SEQEND
  5
616
330
60F
100
AcDbEntity
  8
0
  0
POLYLINE
  5
617
330
1F
100
AcDbEntity
  8
0
100
AcDbPolyFaceMesh
 66
     1
 10
0.0
 20
0.0
 30
0.0
 70
    64
 71
     4
 72
     2
  0
VERTEX
  5
618
330
617
100
AcDbEntity
  8
0
100
AcDbVertex
100
AcDbPolyFaceMeshVertex
 10
59.99999999999888
 20
350.0000000000006
 30
5.000000000000487
 70
   192
  0
VERTEX
  5
619
330
617
100
AcDbEntity
  8
0
100
AcDbVertex
100
AcDbPolyFaceMeshVertex
 10
155.7718821278208
 20
345.0718887259337
 30
0.000000000000361
 70
   192
  0
VERTEX
  5
61A
330
617
100
AcDbEntity
  8
0
100
AcDbVertex
100
AcDbPolyFaceMeshVertex
 10
64.20532070649675
 20
345.0718887259338
 30
0.0000000000002707
 70
   192
  0
VERTEX
  5
61B
330
617
100
AcDbEntity
  8
0
100
AcDbVertex
100
AcDbPolyFaceMeshVertex
 10
160.0000000000033
 20
350.0000000000005
 30
4.999999999999946
 70
   192
  0
VERTEX
  5
61C
330
617
100
AcDbEntity
  8
0
100
AcDbFaceRecord
 10
0.0
 20
0.0
 30
0.0
 70
   128
 71
    -1
 72
     2
 73
     3
  0
VERTEX
  5
61D
330
617
100
AcDbEntity
  8
0
100
AcDbFaceRecord
 10
0.0
 20
0.0
 30
0.0
 70
   128
 71
    -2
 72
     1
 73
     4
  0
SEQEND
  5
61E
330
617
100
AcDbEntity
  8
0
  0
POLYLINE
  5
61F
330
1F
100
AcDbEntity
  8
0
100
AcDbPolyFaceMesh
 66
     1
 10
0.0
 20
0.0
 30
0.0
 70
    64
 71
     4
 72
     2
  0
VERTEX
  5
620
330
61F
100
AcDbEntity
  8
0
100
AcDbVertex
100
AcDbPolyFaceMeshVertex
 10
160.0000000000033
 20
350.0000000000005
 30
4.999999999999946
 70
   192
  0
VERTEX
  5
621
330
61F
100
AcDbEntity
  8
0
100
AcDbVertex
100
AcDbPolyFaceMeshVertex
 10
160.2334620456203
 20
319.0055920856357
 30
0.0000000000002707
 70
   192
  0
VERTEX
  5
622
330
61F
100
AcDbEntity
  8
0
100
AcDbVertex
100
AcDbPolyFaceMeshVertex
 10
155.7718821278208
 20
345.0718887259337
 30
0.000000000000361
 70
   192
  0
VERTEX
  5
623
330
61F
100
AcDbEntity
  8
0
100
AcDbVertex
100
AcDbPolyFaceMeshVertex
 10
165.0867600889735
 20
320.3272328143115
 30
5.000000000000126
 70
   192
  0
VERTEX
  5
624
330
61F
100
AcDbEntity
  8
0
100
AcDbFaceRecord
 10
0.0
 20
0.0
 30
0.0
 70
   128
 71
    -1
 72
     2
 73
     3
  0
VERTEX
  5
625
330
61F
100
AcDbEntity
  8
0
100
AcDbFaceRecord
 10
0.0
 20
0.0
 30
0.0
 70
   128
 71
    -2
 72
     1
 73
     4
  0
SEQEND
  5
626
330
61F
100
AcDbEntity
  8
0
  0
POLYLINE
  5
627
330
1F
100
AcDbEntity
  8
0
100
AcDbPolyFaceMesh
 66
     1
 10
0.0
 20
0.0
 30
0.0
 70
    64
 71
     3
 72
     1
  0
VERTEX
  5
628
330
627
100
AcDbEntity
  8
0
100
AcDbVertex
100
AcDbPolyFaceMeshVertex
 10
64.20532070649675
 20
345.0718887259338
 30
0.0000000000002707
 70
   192
  0
VERTEX
  5
629
330
627
100
AcDbEntity
  8
0
100
AcDbVertex
100
AcDbPolyFaceMeshVertex
 10
-0.0000000000010829
 20
0.0
 30
4.999999999999946
 70
   192
  0
VERTEX
  5
62A
330
627
100
AcDbEntity
  8
0
100
AcDbVertex
100
AcDbPolyFaceMeshVertex
 10
59.99999999999888
 20
350.0000000000006
 30
5.000000000000487
 70
   192
  0
VERTEX
  5
62B
330
627
100
AcDbEntity
  8
0
100
AcDbFaceRecord
 10
0.0
 20
0.0
 30
0.0
 70
   128
 71
     1
 72
     2
 73
     3
  0
SEQEND
  5
62C
330
627
100
AcDbEntity
  8
0
  0
POLYLINE
  5
62D
330
1F
100
AcDbEntity
  8
0
100
AcDbPolyFaceMesh
 66
     1
 10
0.0
 20
0.0
 30
0.0
 70
    64
 71
     3
 72
     1
  0
VERTEX
  5
62E
330
62D
100
AcDbEntity
  8
0
100
AcDbVertex
100
AcDbPolyFaceMeshVertex
 10
64.20532070649675
 20
345.0718887259338
 30
0.0000000000002707
 70
   192
  0
VERTEX
  5
62F
330
62D
100
AcDbEntity
  8
0
100
AcDbVertex
100
AcDbPolyFaceMeshVertex
 10
4.227958527057805
 20
4.397300519405107
 30
0.0000000000004512
 70
   192
  0
VERTEX
  5
630
330
62D
100
AcDbEntity
  8
0
100
AcDbVertex
100
AcDbPolyFaceMeshVertex
 10
-0.0000000000010829
 20
0.0
 30
4.999999999999946
 70
   192
  0
VERTEX
  5
631
330
62D
100
AcDbEntity
  8
0
100
AcDbFaceRecord
 10
0.0
 20
0.0
 30
0.0
 70
   128
 71
     1
 72
     2
 73
     3
  0
SEQEND
  5
632
330
62D
100
AcDbEntity
  8
0
  0
POLYLINE
  5
633
330
1F
100
AcDbEntity
  8
0
100
AcDbPolyFaceMesh
 66
     1
 10
0.0
 20
0.0
 30
0.0
 70
    64
 71
   150
 72
   148
  0
VERTEX
  5
634
330
633
100
AcDbEntity
  8
0
100
AcDbVertex
100
AcDbPolyFaceMeshVertex
 10
18.19845504000587
 20
-2.855317018971067
 30
4.999999999999946
 70
   192
  0
VERTEX
  5
635
330
633
100
AcDbEntity
  8
0
100
AcDbVertex
100
AcDbPolyFaceMeshVertex
 10
59.99999999999888
 20
350.0000000000006
 30
5.000000000000487
 70
   192
  0
VERTEX
  5
636
330
633
100
AcDbEntity
  8
0
100
AcDbVertex
100
AcDbPolyFaceMeshVertex
 10
-0.0000000000010829
 20
0.0
 30
4.999999999999946
 70
   192
  0
VERTEX
  5
637
330
633
100
AcDbEntity
  8
0
100
AcDbVertex
100
AcDbPolyFaceMeshVertex
 10
36.47040930159419
 20
-5.194609344532038
 30
5.000000000000306
 70
   192
  0
VERTEX
  5
638
330
633
100
AcDbEntity
  8
0
100
AcDbVertex
100
AcDbPolyFaceMeshVertex
 10
54.80123368003803
 20
-7.016004065229448
 30
4.999999999999946
 70
   192
  0
VERTEX
  5
639
330
633
100
AcDbEntity
  8
0
100
AcDbVertex
100
AcDbPolyFaceMeshVertex
 10
73.17625193733738
 20
-8.318042914819374
 30
4.999999999999946
 70
   192
  0
VERTEX
  5
63A
330
633
100
AcDbEntity
  8
0
100
AcDbVertex
100
AcDbPolyFaceMeshVertex
 10
147.53961750436
 20
312.2462138270738
 30
5.000000000000126
 70
   192
  0
VERTEX
  5
63B
330
633
100
AcDbEntity
  8
0
100
AcDbVertex
100
AcDbPolyFaceMeshVertex
 10
160.0000000000033
 20
350.0000000000005
 30
4.999999999999946
 70
   192
  0
VERTEX
  5
63C
330
633
100
AcDbEntity
  8
0
100
AcDbVertex
100
AcDbPolyFaceMeshVertex
 10
146.9624852502174
 20
309.7002850960574
 30
5.000000000000126
 70
   192
  0
VERTEX
  5
63D
330
633
100
AcDbEntity
  8
0
100
AcDbVertex
100
AcDbPolyFaceMeshVertex
 10
91.58075245247377
 20
-9.099683439801607
 30
5.000000000000217
 70
   192
  0
VERTEX
  5
63E
330
633
100
AcDbEntity
  8
0
100
AcDbVertex
100
AcDbPolyFaceMeshVertex
 10
109.9999999999991
 20
-9.360299834039393
 30
5.000000000000306
 70
   192
  0
VERTEX
  5
63F
330
633
100
AcDbEntity
  8
0
100
AcDbVertex
100
AcDbPolyFaceMeshVertex
 10
128.4192475475243
 20
-9.099683439801247
 30
5.000000000000397
 70
   192
  0
VERTEX
  5
640
330
633
100
AcDbEntity
  8
0
100
AcDbVertex
100
AcDbPolyFaceMeshVertex
 10
146.8237480626611
 20
-8.318042914819465
 30
5.000000000000397
 70
   192
  0
VERTEX
  5
641
330
633
100
AcDbEntity
  8
0
100
AcDbVertex
100
AcDbPolyFaceMeshVertex
 10
148.7560192968811
 20
314.5560193213389
 30
5.000000000000126
 70
   192
  0
VERTEX
  5
642
330
633
100
AcDbEntity
  8
0
100
AcDbVertex
100
AcDbPolyFaceMeshVertex
 10
150.52879485582
 20
316.4722921515526
 30
5.000000000000036
 70
   192
  0
VERTEX
  5
643
330
633
100
AcDbEntity
  8
0
100
AcDbVertex
100
AcDbPolyFaceMeshVertex
 10
152.7371324564851
 20
317.8644414911259
 30
5.000000000000036
 70
   192
  0
VERTEX
  5
644
330
633
100
AcDbEntity
  8
0
100
AcDbVertex
100
AcDbPolyFaceMeshVertex
 10
155.230537540841
 20
318.6375946632033
 30
5.000000000000306
 70
   192
  0
VERTEX
  5
645
330
633
100
AcDbEntity
  8
0
100
AcDbVertex
100
AcDbPolyFaceMeshVertex
 10
165.0867600889735
 20
320.3272328143115
 30
5.000000000000126
 70
   192
  0
VERTEX
  5
646
330
633
100
AcDbEntity
  8
0
100
AcDbVertex
100
AcDbPolyFaceMeshVertex
 10
147.0639531438169
 20
307.0917339639622
 30
5.000000000000036
 70
   192
  0
VERTEX
  5
647
330
633
100
AcDbEntity
  8
0
100
AcDbVertex
100
AcDbPolyFaceMeshVertex
 10
165.1987663199608
 20
-7.016004065229538
 30
5.000000000000036
 70
   192
  0
VERTEX
  5
648
330
633
100
AcDbEntity
  8
0
100
AcDbVertex
100
AcDbPolyFaceMeshVertex
 10
147.8371063158939
 20
304.5983288796062
 30
5.000000000000217
 70
   192
  0
VERTEX
  5
649
330
633
100
AcDbEntity
  8
0
100
AcDbVertex
100
AcDbPolyFaceMeshVertex
 10
149.2292556554679
 20
302.3899912789408
 30
5.000000000000217
 70
   192
  0
VERTEX
  5
64A
330
633
100
AcDbEntity
  8
0
100
AcDbVertex
100
AcDbPolyFaceMeshVertex
 10
151.1455284856816
 20
300.6172157200018
 30
5.000000000000217
 70
   192
  0
VERTEX
  5
64B
330
633
100
AcDbEntity
  8
0
100
AcDbVertex
100
AcDbPolyFaceMeshVertex
 10
152.9776866726967
 20
272.5949550454978
 30
5.000000000000036
 70
   192
  0
VERTEX
  5
64C
330
633
100
AcDbEntity
  8
0
100
AcDbVertex
100
AcDbPolyFaceMeshVertex
 10
152.8762187790965
 20
275.2035061775931
 30
4.999999999999946
 70
   192
  0
VERTEX
  5
64D
330
633
100
AcDbEntity
  8
0
100
AcDbVertex
100
AcDbPolyFaceMeshVertex
 10
153.7508398447739
 20
270.1015499611415
 30
5.000000000000036
 70
   192
  0
VERTEX
  5
64E
330
633
100
AcDbEntity
  8
0
100
AcDbVertex
100
AcDbPolyFaceMeshVertex
 10
155.1429891843472
 20
267.8932123604766
 30
5.000000000000126
 70
   192
  0
VERTEX
  5
64F
330
633
100
AcDbEntity
  8
0
100
AcDbVertex
100
AcDbPolyFaceMeshVertex
 10
157.059262014561
 20
266.1204368015376
 30
5.000000000000036
 70
   192
  0
VERTEX
  5
650
330
633
100
AcDbEntity
  8
0
100
AcDbVertex
100
AcDbPolyFaceMeshVertex
 10
158.7899523079762
 20
240.7067272591289
 30
4.999999999999946
 70
   192
  0
VERTEX
  5
651
330
633
100
AcDbEntity
  8
0
100
AcDbVertex
100
AcDbPolyFaceMeshVertex
 10
158.8914202015761
 20
238.0981761270337
 30
5.000000000000306
 70
   192
  0
VERTEX
  5
652
330
633
100
AcDbEntity
  8
0
100
AcDbVertex
100
AcDbPolyFaceMeshVertex
 10
159.6645733736531
 20
235.6047710426773
 30
5.000000000000126
 70
   192
  0
VERTEX
  5
653
330
633
100
AcDbEntity
  8
0
100
AcDbVertex
100
AcDbPolyFaceMeshVertex
 10
161.056722713227
 20
233.3964334420123
 30
5.000000000000036
 70
   192
  0
VERTEX
  5
654
330
633
100
AcDbEntity
  8
0
100
AcDbVertex
100
AcDbPolyFaceMeshVertex
 10
162.9729955434408
 20
231.6236578830732
 30
5.000000000000217
 70
   192
  0
VERTEX
  5
655
330
633
100
AcDbEntity
  8
0
100
AcDbVertex
100
AcDbPolyFaceMeshVertex
 10
164.7036858368558
 20
206.2099483406643
 30
5.000000000000306
 70
   192
  0
VERTEX
  5
656
330
633
100
AcDbEntity
  8
0
100
AcDbVertex
100
AcDbPolyFaceMeshVertex
 10
164.8051537304559
 20
203.6013972085693
 30
5.000000000000126
 70
   192
  0
VERTEX
  5
657
330
633
100
AcDbEntity
  8
0
100
AcDbVertex
100
AcDbPolyFaceMeshVertex
 10
165.578306902533
 20
201.1079921242129
 30
5.000000000000126
 70
   192
  0
VERTEX
  5
658
330
633
100
AcDbEntity
  8
0
100
AcDbVertex
100
AcDbPolyFaceMeshVertex
 10
183.5295906984055
 20
-5.194609344531767
 30
4.999999999999946
 70
   192
  0
VERTEX
  5
659
330
633
100
AcDbEntity
  8
0
100
AcDbVertex
100
AcDbPolyFaceMeshVertex
 10
166.9704562421062
 20
198.8996545235478
 30
5.000000000000306
 70
   192
  0
VERTEX
  5
65A
330
633
100
AcDbEntity
  8
0
100
AcDbVertex
100
AcDbPolyFaceMeshVertex
 10
170.7188872593347
 20
169.1046182901045
 30
5.000000000000306
 70
   192
  0
VERTEX
  5
65B
330
633
100
AcDbEntity
  8
0
100
AcDbVertex
100
AcDbPolyFaceMeshVertex
 10
168.8867290723199
 20
197.1268789646088
 30
5.000000000000036
 70
   192
  0
VERTEX
  5
65C
330
633
100
AcDbEntity
  8
0
100
AcDbVertex
100
AcDbPolyFaceMeshVertex
 10
170.6174193657353
 20
171.7131694221997
 30
5.000000000000217
 70
   192
  0
VERTEX
  5
65D
330
633
100
AcDbEntity
  8
0
100
AcDbVertex
100
AcDbPolyFaceMeshVertex
 10
171.492040431412
 20
166.6112132057488
 30
5.000000000000397
 70
   192
  0
VERTEX
  5
65E
330
633
100
AcDbEntity
  8
0
100
AcDbVertex
100
AcDbPolyFaceMeshVertex
 10
172.8841897709862
 20
164.4028756050835
 30
5.000000000000306
 70
   192
  0
VERTEX
  5
65F
330
633
100
AcDbEntity
  8
0
100
AcDbVertex
100
AcDbPolyFaceMeshVertex
 10
174.8004626011997
 20
162.6301000461447
 30
4.999999999999946
 70
   192
  0
VERTEX
  5
660
330
633
100
AcDbEntity
  8
0
100
AcDbVertex
100
AcDbPolyFaceMeshVertex
 10
176.6326207882148
 20
134.6078393716404
 30
5.000000000000126
 70
   192
  0
VERTEX
  5
661
330
633
100
AcDbEntity
  8
0
100
AcDbVertex
100
AcDbPolyFaceMeshVertex
 10
176.5311528946149
 20
137.2163905037357
 30
5.000000000000306
 70
   192
  0
VERTEX
  5
662
330
633
100
AcDbEntity
  8
0
100
AcDbVertex
100
AcDbPolyFaceMeshVertex
 10
177.405773960292
 20
132.1144342872844
 30
5.000000000000126
 70
   192
  0
VERTEX
  5
663
330
633
100
AcDbEntity
  8
0
100
AcDbVertex
100
AcDbPolyFaceMeshVertex
 10
178.7979232998653
 20
129.9060966866193
 30
5.000000000000126
 70
   192
  0
VERTEX
  5
664
330
633
100
AcDbEntity
  8
0
100
AcDbVertex
100
AcDbPolyFaceMeshVertex
 10
180.7141961300796
 20
128.1333211276803
 30
5.000000000000397
 70
   192
  0
VERTEX
  5
665
330
633
100
AcDbEntity
  8
0
100
AcDbVertex
100
AcDbPolyFaceMeshVertex
 10
182.444886423495
 20
102.7196115852712
 30
5.000000000000217
 70
   192
  0
VERTEX
  5
666
330
633
100
AcDbEntity
  8
0
100
AcDbVertex
100
AcDbPolyFaceMeshVertex
 10
182.5463543170949
 20
100.1110604531762
 30
5.000000000000126
 70
   192
  0
VERTEX
  5
667
330
633
100
AcDbEntity
  8
0
100
AcDbVertex
100
AcDbPolyFaceMeshVertex
 10
183.3195074891721
 20
97.61765536881995
 30
5.000000000000217
 70
   192
  0
VERTEX
  5
668
330
633
100
AcDbEntity
  8
0
100
AcDbVertex
100
AcDbPolyFaceMeshVertex
 10
184.7116568287459
 20
95.40931776815493
 30
5.000000000000306
 70
   192
  0
VERTEX
  5
669
330
633
100
AcDbEntity
  8
0
100
AcDbVertex
100
AcDbPolyFaceMeshVertex
 10
188.4600878459745
 20
65.6142815347113
 30
5.000000000000306
 70
   192
  0
VERTEX
  5
66A
330
633
100
AcDbEntity
  8
0
100
AcDbVertex
100
AcDbPolyFaceMeshVertex
 10
194.3738213748537
 20
31.11750261624734
 30
4.999999999999946
 70
   192
  0
VERTEX
  5
66B
330
633
100
AcDbEntity
  8
0
100
AcDbVertex
100
AcDbPolyFaceMeshVertex
 10
201.8015449599925
 20
-2.855317018970977
 30
5.000000000000487
 70
   192
  0
VERTEX
  5
66C
330
633
100
AcDbEntity
  8
0
100
AcDbVertex
100
AcDbPolyFaceMeshVertex
 10
186.6279296589593
 20
93.63654220921595
 30
5.000000000000306
 70
   192
  0
VERTEX
  5
66D
330
633
100
AcDbEntity
  8
0
100
AcDbVertex
100
AcDbPolyFaceMeshVertex
 10
188.3586199523741
 20
68.22283266680678
 30
5.000000000000036
 70
   192
  0
VERTEX
  5
66E
330
633
100
AcDbEntity
  8
0
100
AcDbVertex
100
AcDbPolyFaceMeshVertex
 10
189.2332410180516
 20
63.12087645035563
 30
5.000000000000217
 70
   192
  0
VERTEX
  5
66F
330
633
100
AcDbEntity
  8
0
100
AcDbVertex
100
AcDbPolyFaceMeshVertex
 10
190.6253903576251
 20
60.91253884969034
 30
5.000000000000036
 70
   192
  0
VERTEX
  5
670
330
633
100
AcDbEntity
  8
0
100
AcDbVertex
100
AcDbPolyFaceMeshVertex
 10
192.541663187839
 20
59.13976329075162
 30
5.000000000000126
 70
   192
  0
VERTEX
  5
671
330
633
100
AcDbEntity
  8
0
100
AcDbVertex
100
AcDbPolyFaceMeshVertex
 10
194.2723534812539
 20
33.72605374834256
 30
5.000000000000036
 70
   192
  0
VERTEX
  5
672
330
633
100
AcDbEntity
  8
0
100
AcDbVertex
100
AcDbPolyFaceMeshVertex
 10
195.1469745469315
 20
28.6240975318914
 30
5.000000000000126
 70
   192
  0
VERTEX
  5
673
330
633
100
AcDbEntity
  8
0
100
AcDbVertex
100
AcDbPolyFaceMeshVertex
 10
196.5391238865052
 20
26.41575993122602
 30
5.000000000000036
 70
   192
  0
VERTEX
  5
674
330
633
100
AcDbEntity
  8
0
100
AcDbVertex
100
AcDbPolyFaceMeshVertex
 10
198.4553967167185
 20
24.64298437228694
 30
5.000000000000217
 70
   192
  0
VERTEX
  5
675
330
633
100
AcDbEntity
  8
0
100
AcDbVertex
100
AcDbPolyFaceMeshVertex
 10
200.7652022109835
 20
23.42658257976566
 30
5.000000000000036
 70
   192
  0
VERTEX
  5
676
330
633
100
AcDbEntity
  8
0
100
AcDbVertex
100
AcDbPolyFaceMeshVertex
 10
203.311130942
 20
22.84945032562297
 30
5.000000000000126
 70
   192
  0
VERTEX
  5
677
330
633
100
AcDbEntity
  8
0
100
AcDbVertex
100
AcDbPolyFaceMeshVertex
 10
219.9999999999985
 20
0.0000000000000902
 30
4.999999999999946
 70
   192
  0
VERTEX
  5
678
330
633
100
AcDbEntity
  8
0
100
AcDbVertex
100
AcDbPolyFaceMeshVertex
 10
205.9196820740955
 20
22.95091821922315
 30
5.000000000000217
 70
   192
  0
VERTEX
  5
679
330
633
100
AcDbEntity
  8
0
100
AcDbVertex
100
AcDbPolyFaceMeshVertex
 10
215.7759046222282
 20
24.6405563703315
 30
5.000000000000487
 70
   192
  0
VERTEX
  5
67A
330
633
100
AcDbEntity
  8
0
100
AcDbVertex
100
AcDbPolyFaceMeshVertex
 10
194.8514686821042
 20
57.92336149823008
 30
5.000000000000126
 70
   192
  0
VERTEX
  5
67B
330
633
100
AcDbEntity
  8
0
100
AcDbVertex
100
AcDbPolyFaceMeshVertex
 10
194.8494857353967
 20
36.27198247935893
 30
5.000000000000217
 70
   192
  0
VERTEX
  5
67C
330
633
100
AcDbEntity
  8
0
100
AcDbVertex
100
AcDbPolyFaceMeshVertex
 10
196.0658875279182
 20
38.58178797362367
 30
5.000000000000036
 70
   192
  0
VERTEX
  5
67D
330
633
100
AcDbEntity
  8
0
100
AcDbVertex
100
AcDbPolyFaceMeshVertex
 10
197.3973974131208
 20
57.34622924408756
 30
5.000000000000306
 70
   192
  0
VERTEX
  5
67E
330
633
100
AcDbEntity
  8
0
100
AcDbVertex
100
AcDbPolyFaceMeshVertex
 10
197.8386630868571
 20
40.49806080383737
 30
5.000000000000036
 70
   192
  0
VERTEX
  5
67F
330
633
100
AcDbEntity
  8
0
100
AcDbVertex
100
AcDbPolyFaceMeshVertex
 10
200.0059485452152
 20
57.44769713768747
 30
5.000000000000126
 70
   192
  0
VERTEX
  5
680
330
633
100
AcDbEntity
  8
0
100
AcDbVertex
100
AcDbPolyFaceMeshVertex
 10
200.0470006875223
 20
41.89021014341113
 30
5.000000000000217
 70
   192
  0
VERTEX
  5
681
330
633
100
AcDbEntity
  8
0
100
AcDbVertex
100
AcDbPolyFaceMeshVertex
 10
209.8621710933484
 20
59.13733528879582
 30
4.999999999999946
 70
   192
  0
VERTEX
  5
682
330
633
100
AcDbEntity
  8
0
100
AcDbVertex
100
AcDbPolyFaceMeshVertex
 10
202.5404057718783
 20
42.66336331548842
 30
5.000000000000306
 70
   192
  0
VERTEX
  5
683
330
633
100
AcDbEntity
  8
0
100
AcDbVertex
100
AcDbPolyFaceMeshVertex
 10
212.3966283200112
 20
44.35300146659687
 30
5.000000000000126
 70
   192
  0
VERTEX
  5
684
330
633
100
AcDbEntity
  8
0
100
AcDbVertex
100
AcDbPolyFaceMeshVertex
 10
188.9377351532242
 20
92.4201404166944
 30
5.000000000000217
 70
   192
  0
VERTEX
  5
685
330
633
100
AcDbEntity
  8
0
100
AcDbVertex
100
AcDbPolyFaceMeshVertex
 10
188.9357522065169
 20
70.76876139782334
 30
5.000000000000306
 70
   192
  0
VERTEX
  5
686
330
633
100
AcDbEntity
  8
0
100
AcDbVertex
100
AcDbPolyFaceMeshVertex
 10
190.1521539990382
 20
73.07856689208826
 30
5.000000000000217
 70
   192
  0
VERTEX
  5
687
330
633
100
AcDbEntity
  8
0
100
AcDbVertex
100
AcDbPolyFaceMeshVertex
 10
191.4836638842405
 20
91.84300816255188
 30
5.000000000000036
 70
   192
  0
VERTEX
  5
688
330
633
100
AcDbEntity
  8
0
100
AcDbVertex
100
AcDbPolyFaceMeshVertex
 10
191.9249295579774
 20
74.99483972230186
 30
5.000000000000217
 70
   192
  0
VERTEX
  5
689
330
633
100
AcDbEntity
  8
0
100
AcDbVertex
100
AcDbPolyFaceMeshVertex
 10
194.0922150163356
 20
91.94447605615197
 30
5.000000000000397
 70
   192
  0
VERTEX
  5
68A
330
633
100
AcDbEntity
  8
0
100
AcDbVertex
100
AcDbPolyFaceMeshVertex
 10
194.1332671586421
 20
76.38698906187554
 30
5.000000000000036
 70
   192
  0
VERTEX
  5
68B
330
633
100
AcDbEntity
  8
0
100
AcDbVertex
100
AcDbPolyFaceMeshVertex
 10
203.9484375644685
 20
93.63411420726024
 30
5.000000000000036
 70
   192
  0
VERTEX
  5
68C
330
633
100
AcDbEntity
  8
0
100
AcDbVertex
100
AcDbPolyFaceMeshVertex
 10
196.6266722429984
 20
77.16014223395266
 30
5.000000000000306
 70
   192
  0
VERTEX
  5
68D
330
633
100
AcDbEntity
  8
0
100
AcDbVertex
100
AcDbPolyFaceMeshVertex
 10
206.4828947911308
 20
78.84978038506136
 30
5.000000000000217
 70
   192
  0
VERTEX
  5
68E
330
633
100
AcDbEntity
  8
0
100
AcDbVertex
100
AcDbPolyFaceMeshVertex
 10
183.0240016243451
 20
126.9169193351587
 30
5.000000000000487
 70
   192
  0
VERTEX
  5
68F
330
633
100
AcDbEntity
  8
0
100
AcDbVertex
100
AcDbPolyFaceMeshVertex
 10
183.0220186776373
 20
105.2655403162875
 30
5.000000000000306
 70
   192
  0
VERTEX
  5
690
330
633
100
AcDbEntity
  8
0
100
AcDbVertex
100
AcDbPolyFaceMeshVertex
 10
184.238420470159
 20
107.5753458105526
 30
5.000000000000306
 70
   192
  0
VERTEX
  5
691
330
633
100
AcDbEntity
  8
0
100
AcDbVertex
100
AcDbPolyFaceMeshVertex
 10
185.5699303553614
 20
126.3397870810161
 30
5.000000000000306
 70
   192
  0
VERTEX
  5
692
330
633
100
AcDbEntity
  8
0
100
AcDbVertex
100
AcDbPolyFaceMeshVertex
 10
186.0111960290976
 20
109.4916186407663
 30
5.000000000000036
 70
   192
  0
VERTEX
  5
693
330
633
100
AcDbEntity
  8
0
100
AcDbVertex
100
AcDbPolyFaceMeshVertex
 10
188.1784814874558
 20
126.4412549746162
 30
5.000000000000126
 70
   192
  0
VERTEX
  5
694
330
633
100
AcDbEntity
  8
0
100
AcDbVertex
100
AcDbPolyFaceMeshVertex
 10
188.2195336297629
 20
110.8837679803398
 30
5.000000000000126
 70
   192
  0
VERTEX
  5
695
330
633
100
AcDbEntity
  8
0
100
AcDbVertex
100
AcDbPolyFaceMeshVertex
 10
198.034704035589
 20
128.1308931257249
 30
5.000000000000036
 70
   192
  0
VERTEX
  5
696
330
633
100
AcDbEntity
  8
0
100
AcDbVertex
100
AcDbPolyFaceMeshVertex
 10
190.7129387141189
 20
111.6569211524172
 30
5.000000000000126
 70
   192
  0
VERTEX
  5
697
330
633
100
AcDbEntity
  8
0
100
AcDbVertex
100
AcDbPolyFaceMeshVertex
 10
200.5691612622517
 20
113.346559303526
 30
5.000000000000217
 70
   192
  0
VERTEX
  5
698
330
633
100
AcDbEntity
  8
0
100
AcDbVertex
100
AcDbPolyFaceMeshVertex
 10
177.1102680954645
 20
161.4136982536229
 30
5.000000000000217
 70
   192
  0
VERTEX
  5
699
330
633
100
AcDbEntity
  8
0
100
AcDbVertex
100
AcDbPolyFaceMeshVertex
 10
177.1082851487572
 20
139.7623192347518
 30
5.000000000000306
 70
   192
  0
VERTEX
  5
69A
330
633
100
AcDbEntity
  8
0
100
AcDbVertex
100
AcDbPolyFaceMeshVertex
 10
178.324686941279
 20
142.0721247290168
 30
5.000000000000126
 70
   192
  0
VERTEX
  5
69B
330
633
100
AcDbEntity
  8
0
100
AcDbVertex
100
AcDbPolyFaceMeshVertex
 10
179.6561968264809
 20
160.8365659994803
 30
5.000000000000036
 70
   192
  0
VERTEX
  5
69C
330
633
100
AcDbEntity
  8
0
100
AcDbVertex
100
AcDbPolyFaceMeshVertex
 10
180.0974625002178
 20
143.9883975592307
 30
5.000000000000217
 70
   192
  0
VERTEX
  5
69D
330
633
100
AcDbEntity
  8
0
100
AcDbVertex
100
AcDbPolyFaceMeshVertex
 10
182.2647479585769
 20
160.9380338930806
 30
5.000000000000306
 70
   192
  0
VERTEX
  5
69E
330
633
100
AcDbEntity
  8
0
100
AcDbVertex
100
AcDbPolyFaceMeshVertex
 10
182.3058001008833
 20
145.3805468988044
 30
5.000000000000217
 70
   192
  0
VERTEX
  5
69F
330
633
100
AcDbEntity
  8
0
100
AcDbVertex
100
AcDbPolyFaceMeshVertex
 10
192.1209705067092
 20
162.6276720441891
 30
5.000000000000217
 70
   192
  0
VERTEX
  5
6A0
330
633
100
AcDbEntity
  8
0
100
AcDbVertex
100
AcDbPolyFaceMeshVertex
 10
184.7992051852395
 20
146.1537000708817
 30
5.000000000000126
 70
   192
  0
VERTEX
  5
6A1
330
633
100
AcDbEntity
  8
0
100
AcDbVertex
100
AcDbPolyFaceMeshVertex
 10
194.6554277333715
 20
147.8433382219901
 30
5.000000000000306
 70
   192
  0
VERTEX
  5
6A2
330
633
100
AcDbEntity
  8
0
100
AcDbVertex
100
AcDbPolyFaceMeshVertex
 10
171.1965345665854
 20
195.9104771720876
 30
5.000000000000036
 70
   192
  0
VERTEX
  5
6A3
330
633
100
AcDbEntity
  8
0
100
AcDbVertex
100
AcDbPolyFaceMeshVertex
 10
171.1945516198781
 20
174.259098153216
 30
5.000000000000397
 70
   192
  0
VERTEX
  5
6A4
330
633
100
AcDbEntity
  8
0
100
AcDbVertex
100
AcDbPolyFaceMeshVertex
 10
172.4109534123994
 20
176.5689036474811
 30
5.000000000000487
 70
   192
  0
VERTEX
  5
6A5
330
633
100
AcDbEntity
  8
0
100
AcDbVertex
100
AcDbPolyFaceMeshVertex
 10
173.7424632976018
 20
195.3333449179449
 30
5.000000000000036
 70
   192
  0
VERTEX
  5
6A6
330
633
100
AcDbEntity
  8
0
100
AcDbVertex
100
AcDbPolyFaceMeshVertex
 10
174.1837289713381
 20
178.485176477695
 30
5.000000000000306
 70
   192
  0
VERTEX
  5
6A7
330
633
100
AcDbEntity
  8
0
100
AcDbVertex
100
AcDbPolyFaceMeshVertex
 10
176.3510144296966
 20
195.4348128115447
 30
5.000000000000036
 70
   192
  0
VERTEX
  5
6A8
330
633
100
AcDbEntity
  8
0
100
AcDbVertex
100
AcDbPolyFaceMeshVertex
 10
176.3920665720034
 20
179.8773258172685
 30
5.000000000000217
 70
   192
  0
VERTEX
  5
6A9
330
633
100
AcDbEntity
  8
0
100
AcDbVertex
100
AcDbPolyFaceMeshVertex
 10
186.2072369778302
 20
197.1244509626533
 30
5.000000000000306
 70
   192
  0
VERTEX
  5
6AA
330
633
100
AcDbEntity
  8
0
100
AcDbVertex
100
AcDbPolyFaceMeshVertex
 10
178.885471656359
 20
180.6504789893457
 30
5.000000000000126
 70
   192
  0
VERTEX
  5
6AB
330
633
100
AcDbEntity
  8
0
100
AcDbVertex
100
AcDbPolyFaceMeshVertex
 10
188.7416942044925
 20
182.3401171404543
 30
5.000000000000397
 70
   192
  0
VERTEX
  5
6AC
330
633
100
AcDbEntity
  8
0
100
AcDbVertex
100
AcDbPolyFaceMeshVertex
 10
165.2828010377056
 20
230.4072560905517
 30
5.000000000000126
 70
   192
  0
VERTEX
  5
6AD
330
633
100
AcDbEntity
  8
0
100
AcDbVertex
100
AcDbPolyFaceMeshVertex
 10
165.2808180909981
 20
208.7558770716807
 30
4.999999999999946
 70
   192
  0
VERTEX
  5
6AE
330
633
100
AcDbEntity
  8
0
100
AcDbVertex
100
AcDbPolyFaceMeshVertex
 10
166.4972198835196
 20
211.0656825659459
 30
5.000000000000036
 70
   192
  0
VERTEX
  5
6AF
330
633
100
AcDbEntity
  8
0
100
AcDbVertex
100
AcDbPolyFaceMeshVertex
 10
167.8287297687217
 20
229.8301238364093
 30
5.000000000000036
 70
   192
  0
VERTEX
  5
6B0
330
633
100
AcDbEntity
  8
0
100
AcDbVertex
100
AcDbPolyFaceMeshVertex
 10
168.2699954424588
 20
212.9819553961594
 30
5.000000000000306
 70
   192
  0
VERTEX
  5
6B1
330
633
100
AcDbEntity
  8
0
100
AcDbVertex
100
AcDbPolyFaceMeshVertex
 10
170.437280900817
 20
229.9315917300092
 30
5.000000000000126
 70
   192
  0
VERTEX
  5
6B2
330
633
100
AcDbEntity
  8
0
100
AcDbVertex
100
AcDbPolyFaceMeshVertex
 10
170.4783330431236
 20
214.3741047357327
 30
5.000000000000397
 70
   192
  0
VERTEX
  5
6B3
330
633
100
AcDbEntity
  8
0
100
AcDbVertex
100
AcDbPolyFaceMeshVertex
 10
180.2935034489498
 20
231.621229881118
 30
5.000000000000306
 70
   192
  0
VERTEX
  5
6B4
330
633
100
AcDbEntity
  8
0
100
AcDbVertex
100
AcDbPolyFaceMeshVertex
 10
172.9717381274796
 20
215.1472579078103
 30
5.000000000000217
 70
   192
  0
VERTEX
  5
6B5
330
633
100
AcDbEntity
  8
0
100
AcDbVertex
100
AcDbPolyFaceMeshVertex
 10
182.8279606756127
 20
216.8368960589186
 30
5.000000000000306
 70
   192
  0
VERTEX
  5
6B6
330
633
100
AcDbEntity
  8
0
100
AcDbVertex
100
AcDbPolyFaceMeshVertex
 10
159.3690675088261
 20
264.9040350090162
 30
5.000000000000126
 70
   192
  0
VERTEX
  5
6B7
330
633
100
AcDbEntity
  8
0
100
AcDbVertex
100
AcDbPolyFaceMeshVertex
 10
159.3670845621189
 20
243.2526559901449
 30
5.000000000000036
 70
   192
  0
VERTEX
  5
6B8
330
633
100
AcDbEntity
  8
0
100
AcDbVertex
100
AcDbPolyFaceMeshVertex
 10
160.5834863546402
 20
245.5624614844101
 30
5.000000000000036
 70
   192
  0
VERTEX
  5
6B9
330
633
100
AcDbEntity
  8
0
100
AcDbVertex
100
AcDbPolyFaceMeshVertex
 10
161.9149962398424
 20
264.3269027548737
 30
5.000000000000217
 70
   192
  0
VERTEX
  5
6BA
330
633
100
AcDbEntity
  8
0
100
AcDbVertex
100
AcDbPolyFaceMeshVertex
 10
162.3562619135792
 20
247.4787343146238
 30
5.000000000000306
 70
   192
  0
VERTEX
  5
6BB
330
633
100
AcDbEntity
  8
0
100
AcDbVertex
100
AcDbPolyFaceMeshVertex
 10
164.5235473719376
 20
264.4283706484737
 30
4.999999999999946
 70
   192
  0
VERTEX
  5
6BC
330
633
100
AcDbEntity
  8
0
100
AcDbVertex
100
AcDbPolyFaceMeshVertex
 10
164.5645995142446
 20
248.8708836541972
 30
5.000000000000126
 70
   192
  0
VERTEX
  5
6BD
330
633
100
AcDbEntity
  8
0
100
AcDbVertex
100
AcDbPolyFaceMeshVertex
 10
174.3797699200702
 20
266.1180087995821
 30
5.000000000000217
 70
   192
  0
VERTEX
  5
6BE
330
633
100
AcDbEntity
  8
0
100
AcDbVertex
100
AcDbPolyFaceMeshVertex
 10
167.0580045986
 20
249.6440368262747
 30
5.000000000000036
 70
   192
  0
VERTEX
  5
6BF
330
633
100
AcDbEntity
  8
0
100
AcDbVertex
100
AcDbPolyFaceMeshVertex
 10
176.9142271467327
 20
251.3336749773829
 30
5.000000000000036
 70
   192
  0
VERTEX
  5
6C0
330
633
100
AcDbEntity
  8
0
100
AcDbVertex
100
AcDbPolyFaceMeshVertex
 10
153.4553339799464
 20
299.4008139274807
 30
5.000000000000126
 70
   192
  0
VERTEX
  5
6C1
330
633
100
AcDbEntity
  8
0
100
AcDbVertex
100
AcDbPolyFaceMeshVertex
 10
153.4533510332389
 20
277.7494349086094
 30
4.999999999999946
 70
   192
  0
VERTEX
  5
6C2
330
633
100
AcDbEntity
  8
0
100
AcDbVertex
100
AcDbPolyFaceMeshVertex
 10
154.6697528257603
 20
280.0592404028743
 30
5.000000000000126
 70
   192
  0
VERTEX
  5
6C3
330
633
100
AcDbEntity
  8
0
100
AcDbVertex
100
AcDbPolyFaceMeshVertex
 10
156.0012627109626
 20
298.8236816733381
 30
5.000000000000036
 70
   192
  0
VERTEX
  5
6C4
330
633
100
AcDbEntity
  8
0
100
AcDbVertex
100
AcDbPolyFaceMeshVertex
 10
156.4425283846996
 20
281.975513233088
 30
5.000000000000036
 70
   192
  0
VERTEX
  5
6C5
330
633
100
AcDbEntity
  8
0
100
AcDbVertex
100
AcDbPolyFaceMeshVertex
 10
158.6098138430577
 20
298.9251495669383
 30
5.000000000000126
 70
   192
  0
VERTEX
  5
6C6
330
633
100
AcDbEntity
  8
0
100
AcDbVertex
100
AcDbPolyFaceMeshVertex
 10
158.6508659853644
 20
283.3676625726617
 30
4.999999999999946
 70
   192
  0
VERTEX
  5
6C7
330
633
100
AcDbEntity
  8
0
100
AcDbVertex
100
AcDbPolyFaceMeshVertex
 10
168.4660363911906
 20
300.6147877180464
 30
5.000000000000126
 70
   192
  0
VERTEX
  5
6C8
330
633
100
AcDbEntity
  8
0
100
AcDbVertex
100
AcDbPolyFaceMeshVertex
 10
161.1442710697206
 20
284.1408157447389
 30
5.000000000000217
 70
   192
  0
VERTEX
  5
6C9
330
633
100
AcDbEntity
  8
0
100
AcDbVertex
100
AcDbPolyFaceMeshVertex
 10
171.0004936178531
 20
285.8304538958473
 30
5.000000000000126
 70
   192
  0
VERTEX
  5
6CA
330
633
100
AcDbEntity
  8
0
100
AcDbFaceRecord
 10
0.0
 20
0.0
 30
0.0
 70
   128
 71
    -1
 72
     2
 73
     3
  0
VERTEX
  5
6CB
330
633
100
AcDbEntity
  8
0
100
AcDbFaceRecord
 10
0.0
 20
0.0
 30
0.0
 70
   128
 71
    -2
 72
     1
 73
    -4
  0
VERTEX
  5
6CC
330
633
100
AcDbEntity
  8
0
100
AcDbFaceRecord
 10
0.0
 20
0.0
 30
0.0
 70
   128
 71
    -2
 72
     4
 73
    -5
  0
VERTEX
  5
6CD
330
633
100
AcDbEntity
  8
0
100
AcDbFaceRecord
 10
0.0
 20
0.0
 30
0.0
 70
   128
 71
    -2
 72
     5
 73
    -6
  0
VERTEX
  5
6CE
330
633
100
AcDbEntity
  8
0
100
AcDbFaceRecord
 10
0.0
 20
0.0
 30
0.0
 70
   128
 71
    -2
 72
    -6
 73
    -7
  0
VERTEX
  5
6CF
330
633
100
AcDbEntity
  8
0
100
AcDbFaceRecord
 10
0.0
 20
0.0
 30
0.0
 70
   128
 71
    -2
 72
    -7
 73
     8
  0
VERTEX
  5
6D0
330
633
100
AcDbEntity
  8
0
100
AcDbFaceRecord
 10
0.0
 20
0.0
 30
0.0
 70
   128
 71
    -7
 72
    -6
 73
     9
  0
VERTEX
  5
6D1
330
633
100
AcDbEntity
  8
0
100
AcDbFaceRecord
 10
0.0
 20
0.0
 30
0.0
 70
   128
 71
    -9
 72
     6
 73
   -10
  0
VERTEX
  5
6D2
330
633
100
AcDbEntity
  8
0
100
AcDbFaceRecord
 10
0.0
 20
0.0
 30
0.0
 70
   128
 71
    -9
 72
    10
 73
   -11
  0
VERTEX
  5
6D3
330
633
100
AcDbEntity
  8
0
100
AcDbFaceRecord
 10
0.0
 20
0.0
 30
0.0
 70
   128
 71
    -9
 72
    11
 73
   -12
  0
VERTEX
  5
6D4
330
633
100
AcDbEntity
  8
0
100
AcDbFaceRecord
 10
0.0
 20
0.0
 30
0.0
 70
   128
 71
    -9
 72
    12
 73
   -13
  0
VERTEX
  5
6D5
330
633
100
AcDbEntity
  8
0
100
AcDbFaceRecord
 10
0.0
 20
0.0
 30
0.0
 70
   128
 71
    -8
 72
     7
 73
   -14
  0
VERTEX
  5
6D6
330
633
100
AcDbEntity
  8
0
100
AcDbFaceRecord
 10
0.0
 20
0.0
 30
0.0
 70
   128
 71
    -8
 72
    14
 73
   -15
  0
VERTEX
  5
6D7
330
633
100
AcDbEntity
  8
0
100
AcDbFaceRecord
 10
0.0
 20
0.0
 30
0.0
 70
   128
 71
    -8
 72
    15
 73
   -16
  0
VERTEX
  5
6D8
330
633
100
AcDbEntity
  8
0
100
AcDbFaceRecord
 10
0.0
 20
0.0
 30
0.0
 70
   128
 71
    -8
 72
    16
 73
   -17
  0
VERTEX
  5
6D9
330
633
100
AcDbEntity
  8
0
100
AcDbFaceRecord
 10
0.0
 20
0.0
 30
0.0
 70
   128
 71
    -8
 72
    17
 73
    18
  0
VERTEX
  5
6DA
330
633
100
AcDbEntity
  8
0
100
AcDbFaceRecord
 10
0.0
 20
0.0
 30
0.0
 70
   128
 71
   -13
 72
    19
 73
    -9
  0
VERTEX
  5
6DB
330
633
100
AcDbEntity
  8
0
100
AcDbFaceRecord
 10
0.0
 20
0.0
 30
0.0
 70
   128
 71
   -19
 72
    13
 73
   -20
  0
VERTEX
  5
6DC
330
633
100
AcDbEntity
  8
0
100
AcDbFaceRecord
 10
0.0
 20
0.0
 30
0.0
 70
   128
 71
   -19
 72
   -20
 73
    21
  0
VERTEX
  5
6DD
330
633
100
AcDbEntity
  8
0
100
AcDbFaceRecord
 10
0.0
 20
0.0
 30
0.0
 70
   128
 71
   -21
 72
   -20
 73
    22
  0
VERTEX
  5
6DE
330
633
100
AcDbEntity
  8
0
100
AcDbFaceRecord
 10
0.0
 20
0.0
 30
0.0
 70
   128
 71
   -22
 72
   -20
 73
    23
  0
VERTEX
  5
6DF
330
633
100
AcDbEntity
  8
0
100
AcDbFaceRecord
 10
0.0
 20
0.0
 30
0.0
 70
   128
 71
   -23
 72
   -20
 73
   -24
  0
VERTEX
  5
6E0
330
633
100
AcDbEntity
  8
0
100
AcDbFaceRecord
 10
0.0
 20
0.0
 30
0.0
 70
   128
 71
   -23
 72
    24
 73
   -25
  0
VERTEX
  5
6E1
330
633
100
AcDbEntity
  8
0
100
AcDbFaceRecord
 10
0.0
 20
0.0
 30
0.0
 70
   128
 71
   -24
 72
   -20
 73
    26
  0
VERTEX
  5
6E2
330
633
100
AcDbEntity
  8
0
100
AcDbFaceRecord
 10
0.0
 20
0.0
 30
0.0
 70
   128
 71
   -26
 72
   -20
 73
    27
  0
VERTEX
  5
6E3
330
633
100
AcDbEntity
  8
0
100
AcDbFaceRecord
 10
0.0
 20
0.0
 30
0.0
 70
   128
 71
   -27
 72
   -20
 73
    28
  0
VERTEX
  5
6E4
330
633
100
AcDbEntity
  8
0
100
AcDbFaceRecord
 10
0.0
 20
0.0
 30
0.0
 70
   128
 71
   -28
 72
   -20
 73
   -29
  0
VERTEX
  5
6E5
330
633
100
AcDbEntity
  8
0
100
AcDbFaceRecord
 10
0.0
 20
0.0
 30
0.0
 70
   128
 71
   -29
 72
   -20
 73
    30
  0
VERTEX
  5
6E6
330
633
100
AcDbEntity
  8
0
100
AcDbFaceRecord
 10
0.0
 20
0.0
 30
0.0
 70
   128
 71
   -30
 72
   -20
 73
    31
  0
VERTEX
  5
6E7
330
633
100
AcDbEntity
  8
0
100
AcDbFaceRecord
 10
0.0
 20
0.0
 30
0.0
 70
   128
 71
   -31
 72
   -20
 73
    32
  0
VERTEX
  5
6E8
330
633
100
AcDbEntity
  8
0
100
AcDbFaceRecord
 10
0.0
 20
0.0
 30
0.0
 70
   128
 71
   -32
 72
   -20
 73
    33
  0
VERTEX
  5
6E9
330
633
100
AcDbEntity
  8
0
100
AcDbFaceRecord
 10
0.0
 20
0.0
 30
0.0
 70
   128
 71
   -33
 72
   -20
 73
   -34
  0
VERTEX
  5
6EA
330
633
100
AcDbEntity
  8
0
100
AcDbFaceRecord
 10
0.0
 20
0.0
 30
0.0
 70
   128
 71
   -34
 72
   -20
 73
    35
  0
VERTEX
  5
6EB
330
633
100
AcDbEntity
  8
0
100
AcDbFaceRecord
 10
0.0
 20
0.0
 30
0.0
 70
   128
 71
   -35
 72
   -20
 73
    36
  0
VERTEX
  5
6EC
330
633
100
AcDbEntity
  8
0
100
AcDbFaceRecord
 10
0.0
 20
0.0
 30
0.0
 70
   128
 71
   -36
 72
    20
 73
   -37
  0
VERTEX
  5
6ED
330
633
100
AcDbEntity
  8
0
100
AcDbFaceRecord
 10
0.0
 20
0.0
 30
0.0
 70
   128
 71
   -36
 72
   -37
 73
    38
  0
VERTEX
  5
6EE
330
633
100
AcDbEntity
  8
0
100
AcDbFaceRecord
 10
0.0
 20
0.0
 30
0.0
 70
   128
 71
   -38
 72
   -37
 73
   -39
  0
VERTEX
  5
6EF
330
633
100
AcDbEntity
  8
0
100
AcDbFaceRecord
 10
0.0
 20
0.0
 30
0.0
 70
   128
 71
   -38
 72
   -39
 73
    40
  0
VERTEX
  5
6F0
330
633
100
AcDbEntity
  8
0
100
AcDbFaceRecord
 10
0.0
 20
0.0
 30
0.0
 70
   128
 71
   -40
 72
    39
 73
   -41
  0
VERTEX
  5
6F1
330
633
100
AcDbEntity
  8
0
100
AcDbFaceRecord
 10
0.0
 20
0.0
 30
0.0
 70
   128
 71
   -39
 72
   -37
 73
    42
  0
VERTEX
  5
6F2
330
633
100
AcDbEntity
  8
0
100
AcDbFaceRecord
 10
0.0
 20
0.0
 30
0.0
 70
   128
 71
   -42
 72
   -37
 73
    43
  0
VERTEX
  5
6F3
330
633
100
AcDbEntity
  8
0
100
AcDbFaceRecord
 10
0.0
 20
0.0
 30
0.0
 70
   128
 71
   -43
 72
   -37
 73
    44
  0
VERTEX
  5
6F4
330
633
100
AcDbEntity
  8
0
100
AcDbFaceRecord
 10
0.0
 20
0.0
 30
0.0
 70
   128
 71
   -44
 72
   -37
 73
   -45
  0
VERTEX
  5
6F5
330
633
100
AcDbEntity
  8
0
100
AcDbFaceRecord
 10
0.0
 20
0.0
 30
0.0
 70
   128
 71
   -44
 72
    45
 73
   -46
  0
VERTEX
  5
6F6
330
633
100
AcDbEntity
  8
0
100
AcDbFaceRecord
 10
0.0
 20
0.0
 30
0.0
 70
   128
 71
   -45
 72
   -37
 73
    47
  0
VERTEX
  5
6F7
330
633
100
AcDbEntity
  8
0
100
AcDbFaceRecord
 10
0.0
 20
0.0
 30
0.0
 70
   128
 71
   -47
 72
   -37
 73
    48
  0
VERTEX
  5
6F8
330
633
100
AcDbEntity
  8
0
100
AcDbFaceRecord
 10
0.0
 20
0.0
 30
0.0
 70
   128
 71
   -48
 72
   -37
 73
    49
  0
VERTEX
  5
6F9
330
633
100
AcDbEntity
  8
0
100
AcDbFaceRecord
 10
0.0
 20
0.0
 30
0.0
 70
   128
 71
   -49
 72
   -37
 73
   -50
  0
VERTEX
  5
6FA
330
633
100
AcDbEntity
  8
0
100
AcDbFaceRecord
 10
0.0
 20
0.0
 30
0.0
 70
   128
 71
   -50
 72
   -37
 73
    51
  0
VERTEX
  5
6FB
330
633
100
AcDbEntity
  8
0
100
AcDbFaceRecord
 10
0.0
 20
0.0
 30
0.0
 70
   128
 71
   -51
 72
   -37
 73
    52
  0
VERTEX
  5
6FC
330
633
100
AcDbEntity
  8
0
100
AcDbFaceRecord
 10
0.0
 20
0.0
 30
0.0
 70
   128
 71
   -52
 72
   -37
 73
    53
  0
VERTEX
  5
6FD
330
633
100
AcDbEntity
  8
0
100
AcDbFaceRecord
 10
0.0
 20
0.0
 30
0.0
 70
   128
 71
   -53
 72
   -37
 73
   -54
  0
VERTEX
  5
6FE
330
633
100
AcDbEntity
  8
0
100
AcDbFaceRecord
 10
0.0
 20
0.0
 30
0.0
 70
   128
 71
   -54
 72
   -37
 73
   -55
  0
VERTEX
  5
6FF
330
633
100
AcDbEntity
  8
0
100
AcDbFaceRecord
 10
0.0
 20
0.0
 30
0.0
 70
   128
 71
   -55
 72
    37
 73
   -56
  0
VERTEX
  5
700
330
633
100
AcDbEntity
  8
0
100
AcDbFaceRecord
 10
0.0
 20
0.0
 30
0.0
 70
   128
 71
   -53
 72
   -54
 73
    57
  0
VERTEX
  5
701
330
633
100
AcDbEntity
  8
0
100
AcDbFaceRecord
 10
0.0
 20
0.0
 30
0.0
 70
   128
 71
   -57
 72
    54
 73
   -58
  0
VERTEX
  5
702
330
633
100
AcDbEntity
  8
0
100
AcDbFaceRecord
 10
0.0
 20
0.0
 30
0.0
 70
   128
 71
   -54
 72
   -55
 73
    59
  0
VERTEX
  5
703
330
633
100
AcDbEntity
  8
0
100
AcDbFaceRecord
 10
0.0
 20
0.0
 30
0.0
 70
   128
 71
   -59
 72
   -55
 73
    60
  0
VERTEX
  5
704
330
633
100
AcDbEntity
  8
0
100
AcDbFaceRecord
 10
0.0
 20
0.0
 30
0.0
 70
   128
 71
   -60
 72
   -55
 73
    61
  0
VERTEX
  5
705
330
633
100
AcDbEntity
  8
0
100
AcDbFaceRecord
 10
0.0
 20
0.0
 30
0.0
 70
   128
 71
   -61
 72
    55
 73
   -62
  0
VERTEX
  5
706
330
633
100
AcDbEntity
  8
0
100
AcDbFaceRecord
 10
0.0
 20
0.0
 30
0.0
 70
   128
 71
   -55
 72
   -56
 73
    63
  0
VERTEX
  5
707
330
633
100
AcDbEntity
  8
0
100
AcDbFaceRecord
 10
0.0
 20
0.0
 30
0.0
 70
   128
 71
   -63
 72
   -56
 73
    64
  0
VERTEX
  5
708
330
633
100
AcDbEntity
  8
0
100
AcDbFaceRecord
 10
0.0
 20
0.0
 30
0.0
 70
   128
 71
   -64
 72
   -56
 73
    65
  0
VERTEX
  5
709
330
633
100
AcDbEntity
  8
0
100
AcDbFaceRecord
 10
0.0
 20
0.0
 30
0.0
 70
   128
 71
   -65
 72
   -56
 73
    66
  0
VERTEX
  5
70A
330
633
100
AcDbEntity
  8
0
100
AcDbFaceRecord
 10
0.0
 20
0.0
 30
0.0
 70
   128
 71
   -66
 72
   -56
 73
    67
  0
VERTEX
  5
70B
330
633
100
AcDbEntity
  8
0
100
AcDbFaceRecord
 10
0.0
 20
0.0
 30
0.0
 70
   128
 71
   -67
 72
    56
 73
   -68
  0
VERTEX
  5
70C
330
633
100
AcDbEntity
  8
0
100
AcDbFaceRecord
 10
0.0
 20
0.0
 30
0.0
 70
   128
 71
   -67
 72
   -68
 73
    69
  0
VERTEX
  5
70D
330
633
100
AcDbEntity
  8
0
100
AcDbFaceRecord
 10
0.0
 20
0.0
 30
0.0
 70
   128
 71
   -69
 72
    68
 73
    70
  0
VERTEX
  5
70E
330
633
100
AcDbEntity
  8
0
100
AcDbFaceRecord
 10
0.0
 20
0.0
 30
0.0
 70
   128
 71
   -62
 72
    71
 73
   -61
  0
VERTEX
  5
70F
330
633
100
AcDbEntity
  8
0
100
AcDbFaceRecord
 10
0.0
 20
0.0
 30
0.0
 70
   128
 71
   -71
 72
    62
 73
   -72
  0
VERTEX
  5
710
330
633
100
AcDbEntity
  8
0
100
AcDbFaceRecord
 10
0.0
 20
0.0
 30
0.0
 70
   128
 71
   -71
 72
    72
 73
   -73
  0
VERTEX
  5
711
330
633
100
AcDbEntity
  8
0
100
AcDbFaceRecord
 10
0.0
 20
0.0
 30
0.0
 70
   128
 71
   -71
 72
   -73
 73
    74
  0
VERTEX
  5
712
330
633
100
AcDbEntity
  8
0
100
AcDbFaceRecord
 10
0.0
 20
0.0
 30
0.0
 70
   128
 71
   -74
 72
    73
 73
   -75
  0
VERTEX
  5
713
330
633
100
AcDbEntity
  8
0
100
AcDbFaceRecord
 10
0.0
 20
0.0
 30
0.0
 70
   128
 71
   -74
 72
   -75
 73
    76
  0
VERTEX
  5
714
330
633
100
AcDbEntity
  8
0
100
AcDbFaceRecord
 10
0.0
 20
0.0
 30
0.0
 70
   128
 71
   -76
 72
    75
 73
   -77
  0
VERTEX
  5
715
330
633
100
AcDbEntity
  8
0
100
AcDbFaceRecord
 10
0.0
 20
0.0
 30
0.0
 70
   128
 71
   -76
 72
   -77
 73
    78
  0
VERTEX
  5
716
330
633
100
AcDbEntity
  8
0
100
AcDbFaceRecord
 10
0.0
 20
0.0
 30
0.0
 70
   128
 71
   -78
 72
    77
 73
   -79
  0
VERTEX
  5
717
330
633
100
AcDbEntity
  8
0
100
AcDbFaceRecord
 10
0.0
 20
0.0
 30
0.0
 70
   128
 71
   -78
 72
    79
 73
    80
  0
VERTEX
  5
718
330
633
100
AcDbEntity
  8
0
100
AcDbFaceRecord
 10
0.0
 20
0.0
 30
0.0
 70
   128
 71
   -58
 72
    81
 73
   -57
  0
VERTEX
  5
719
330
633
100
AcDbEntity
  8
0
100
AcDbFaceRecord
 10
0.0
 20
0.0
 30
0.0
 70
   128
 71
   -81
 72
    58
 73
   -82
  0
VERTEX
  5
71A
330
633
100
AcDbEntity
  8
0
100
AcDbFaceRecord
 10
0.0
 20
0.0
 30
0.0
 70
   128
 71
   -81
 72
    82
 73
   -83
  0
VERTEX
  5
71B
330
633
100
AcDbEntity
  8
0
100
AcDbFaceRecord
 10
0.0
 20
0.0
 30
0.0
 70
   128
 71
   -81
 72
   -83
 73
    84
  0
VERTEX
  5
71C
330
633
100
AcDbEntity
  8
0
100
AcDbFaceRecord
 10
0.0
 20
0.0
 30
0.0
 70
   128
 71
   -84
 72
    83
 73
   -85
  0
VERTEX
  5
71D
330
633
100
AcDbEntity
  8
0
100
AcDbFaceRecord
 10
0.0
 20
0.0
 30
0.0
 70
   128
 71
   -84
 72
   -85
 73
    86
  0
VERTEX
  5
71E
330
633
100
AcDbEntity
  8
0
100
AcDbFaceRecord
 10
0.0
 20
0.0
 30
0.0
 70
   128
 71
   -86
 72
    85
 73
   -87
  0
VERTEX
  5
71F
330
633
100
AcDbEntity
  8
0
100
AcDbFaceRecord
 10
0.0
 20
0.0
 30
0.0
 70
   128
 71
   -86
 72
   -87
 73
    88
  0
VERTEX
  5
720
330
633
100
AcDbEntity
  8
0
100
AcDbFaceRecord
 10
0.0
 20
0.0
 30
0.0
 70
   128
 71
   -88
 72
    87
 73
   -89
  0
VERTEX
  5
721
330
633
100
AcDbEntity
  8
0
100
AcDbFaceRecord
 10
0.0
 20
0.0
 30
0.0
 70
   128
 71
   -88
 72
    89
 73
    90
  0
VERTEX
  5
722
330
633
100
AcDbEntity
  8
0
100
AcDbFaceRecord
 10
0.0
 20
0.0
 30
0.0
 70
   128
 71
   -50
 72
    91
 73
   -49
  0
VERTEX
  5
723
330
633
100
AcDbEntity
  8
0
100
AcDbFaceRecord
 10
0.0
 20
0.0
 30
0.0
 70
   128
 71
   -91
 72
    50
 73
   -92
  0
VERTEX
  5
724
330
633
100
AcDbEntity
  8
0
100
AcDbFaceRecord
 10
0.0
 20
0.0
 30
0.0
 70
   128
 71
   -91
 72
    92
 73
   -93
  0
VERTEX
  5
725
330
633
100
AcDbEntity
  8
0
100
AcDbFaceRecord
 10
0.0
 20
0.0
 30
0.0
 70
   128
 71
   -91
 72
   -93
 73
    94
  0
VERTEX
  5
726
330
633
100
AcDbEntity
  8
0
100
AcDbFaceRecord
 10
0.0
 20
0.0
 30
0.0
 70
   128
 71
   -94
 72
    93
 73
   -95
  0
VERTEX
  5
727
330
633
100
AcDbEntity
  8
0
100
AcDbFaceRecord
 10
0.0
 20
0.0
 30
0.0
 70
   128
 71
   -94
 72
   -95
 73
    96
  0
VERTEX
  5
728
330
633
100
AcDbEntity
  8
0
100
AcDbFaceRecord
 10
0.0
 20
0.0
 30
0.0
 70
   128
 71
   -96
 72
    95
 73
   -97
  0
VERTEX
  5
729
330
633
100
AcDbEntity
  8
0
100
AcDbFaceRecord
 10
0.0
 20
0.0
 30
0.0
 70
   128
 71
   -96
 72
   -97
 73
    98
  0
VERTEX
  5
72A
330
633
100
AcDbEntity
  8
0
100
AcDbFaceRecord
 10
0.0
 20
0.0
 30
0.0
 70
   128
 71
   -98
 72
    97
 73
   -99
  0
VERTEX
  5
72B
330
633
100
AcDbEntity
  8
0
100
AcDbFaceRecord
 10
0.0
 20
0.0
 30
0.0
 70
   128
 71
   -98
 72
    99
 73
   100
  0
VERTEX
  5
72C
330
633
100
AcDbEntity
  8
0
100
AcDbFaceRecord
 10
0.0
 20
0.0
 30
0.0
 70
   128
 71
   -46
 72
   101
 73
   -44
  0
VERTEX
  5
72D
330
633
100
AcDbEntity
  8
0
100
AcDbFaceRecord
 10
0.0
 20
0.0
 30
0.0
 70
   128
 71
  -101
 72
    46
 73
  -102
  0
VERTEX
  5
72E
330
633
100
AcDbEntity
  8
0
100
AcDbFaceRecord
 10
0.0
 20
0.0
 30
0.0
 70
   128
 71
  -101
 72
   102
 73
  -103
  0
VERTEX
  5
72F
330
633
100
AcDbEntity
  8
0
100
AcDbFaceRecord
 10
0.0
 20
0.0
 30
0.0
 70
   128
 71
  -101
 72
  -103
 73
   104
  0
VERTEX
  5
730
330
633
100
AcDbEntity
  8
0
100
AcDbFaceRecord
 10
0.0
 20
0.0
 30
0.0
 70
   128
 71
  -104
 72
   103
 73
  -105
  0
VERTEX
  5
731
330
633
100
AcDbEntity
  8
0
100
AcDbFaceRecord
 10
0.0
 20
0.0
 30
0.0
 70
   128
 71
  -104
 72
  -105
 73
   106
  0
VERTEX
  5
732
330
633
100
AcDbEntity
  8
0
100
AcDbFaceRecord
 10
0.0
 20
0.0
 30
0.0
 70
   128
 71
  -106
 72
   105
 73
  -107
  0
VERTEX
  5
733
330
633
100
AcDbEntity
  8
0
100
AcDbFaceRecord
 10
0.0
 20
0.0
 30
0.0
 70
   128
 71
  -106
 72
  -107
 73
   108
  0
VERTEX
  5
734
330
633
100
AcDbEntity
  8
0
100
AcDbFaceRecord
 10
0.0
 20
0.0
 30
0.0
 70
   128
 71
  -108
 72
   107
 73
  -109
  0
VERTEX
  5
735
330
633
100
AcDbEntity
  8
0
100
AcDbFaceRecord
 10
0.0
 20
0.0
 30
0.0
 70
   128
 71
  -108
 72
   109
 73
   110
  0
VERTEX
  5
736
330
633
100
AcDbEntity
  8
0
100
AcDbFaceRecord
 10
0.0
 20
0.0
 30
0.0
 70
   128
 71
   -41
 72
   111
 73
   -40
  0
VERTEX
  5
737
330
633
100
AcDbEntity
  8
0
100
AcDbFaceRecord
 10
0.0
 20
0.0
 30
0.0
 70
   128
 71
  -111
 72
    41
 73
  -112
  0
VERTEX
  5
738
330
633
100
AcDbEntity
  8
0
100
AcDbFaceRecord
 10
0.0
 20
0.0
 30
0.0
 70
   128
 71
  -111
 72
   112
 73
  -113
  0
VERTEX
  5
739
330
633
100
AcDbEntity
  8
0
100
AcDbFaceRecord
 10
0.0
 20
0.0
 30
0.0
 70
   128
 71
  -111
 72
  -113
 73
   114
  0
VERTEX
  5
73A
330
633
100
AcDbEntity
  8
0
100
AcDbFaceRecord
 10
0.0
 20
0.0
 30
0.0
 70
   128
 71
  -114
 72
   113
 73
  -115
  0
VERTEX
  5
73B
330
633
100
AcDbEntity
  8
0
100
AcDbFaceRecord
 10
0.0
 20
0.0
 30
0.0
 70
   128
 71
  -114
 72
  -115
 73
   116
  0
VERTEX
  5
73C
330
633
100
AcDbEntity
  8
0
100
AcDbFaceRecord
 10
0.0
 20
0.0
 30
0.0
 70
   128
 71
  -116
 72
   115
 73
  -117
  0
VERTEX
  5
73D
330
633
100
AcDbEntity
  8
0
100
AcDbFaceRecord
 10
0.0
 20
0.0
 30
0.0
 70
   128
 71
  -116
 72
  -117
 73
   118
  0
VERTEX
  5
73E
330
633
100
AcDbEntity
  8
0
100
AcDbFaceRecord
 10
0.0
 20
0.0
 30
0.0
 70
   128
 71
  -118
 72
   117
 73
  -119
  0
VERTEX
  5
73F
330
633
100
AcDbEntity
  8
0
100
AcDbFaceRecord
 10
0.0
 20
0.0
 30
0.0
 70
   128
 71
  -118
 72
   119
 73
   120
  0
VERTEX
  5
740
330
633
100
AcDbEntity
  8
0
100
AcDbFaceRecord
 10
0.0
 20
0.0
 30
0.0
 70
   128
 71
   -34
 72
   121
 73
   -33
  0
VERTEX
  5
741
330
633
100
AcDbEntity
  8
0
100
AcDbFaceRecord
 10
0.0
 20
0.0
 30
0.0
 70
   128
 71
  -121
 72
    34
 73
  -122
  0
VERTEX
  5
742
330
633
100
AcDbEntity
  8
0
100
AcDbFaceRecord
 10
0.0
 20
0.0
 30
0.0
 70
   128
 71
  -121
 72
   122
 73
  -123
  0
VERTEX
  5
743
330
633
100
AcDbEntity
  8
0
100
AcDbFaceRecord
 10
0.0
 20
0.0
 30
0.0
 70
   128
 71
  -121
 72
  -123
 73
   124
  0
VERTEX
  5
744
330
633
100
AcDbEntity
  8
0
100
AcDbFaceRecord
 10
0.0
 20
0.0
 30
0.0
 70
   128
 71
  -124
 72
   123
 73
  -125
  0
VERTEX
  5
745
330
633
100
AcDbEntity
  8
0
100
AcDbFaceRecord
 10
0.0
 20
0.0
 30
0.0
 70
   128
 71
  -124
 72
  -125
 73
   126
  0
VERTEX
  5
746
330
633
100
AcDbEntity
  8
0
100
AcDbFaceRecord
 10
0.0
 20
0.0
 30
0.0
 70
   128
 71
  -126
 72
   125
 73
  -127
  0
VERTEX
  5
747
330
633
100
AcDbEntity
  8
0
100
AcDbFaceRecord
 10
0.0
 20
0.0
 30
0.0
 70
   128
 71
  -126
 72
  -127
 73
   128
  0
VERTEX
  5
748
330
633
100
AcDbEntity
  8
0
100
AcDbFaceRecord
 10
0.0
 20
0.0
 30
0.0
 70
   128
 71
  -128
 72
   127
 73
  -129
  0
VERTEX
  5
749
330
633
100
AcDbEntity
  8
0
100
AcDbFaceRecord
 10
0.0
 20
0.0
 30
0.0
 70
   128
 71
  -128
 72
   129
 73
   130
  0
VERTEX
  5
74A
330
633
100
AcDbEntity
  8
0
100
AcDbFaceRecord
 10
0.0
 20
0.0
 30
0.0
 70
   128
 71
   -29
 72
   131
 73
   -28
  0
VERTEX
  5
74B
330
633
100
AcDbEntity
  8
0
100
AcDbFaceRecord
 10
0.0
 20
0.0
 30
0.0
 70
   128
 71
  -131
 72
    29
 73
  -132
  0
VERTEX
  5
74C
330
633
100
AcDbEntity
  8
0
100
AcDbFaceRecord
 10
0.0
 20
0.0
 30
0.0
 70
   128
 71
  -131
 72
   132
 73
  -133
  0
VERTEX
  5
74D
330
633
100
AcDbEntity
  8
0
100
AcDbFaceRecord
 10
0.0
 20
0.0
 30
0.0
 70
   128
 71
  -131
 72
  -133
 73
   134
  0
VERTEX
  5
74E
330
633
100
AcDbEntity
  8
0
100
AcDbFaceRecord
 10
0.0
 20
0.0
 30
0.0
 70
   128
 71
  -134
 72
   133
 73
  -135
  0
VERTEX
  5
74F
330
633
100
AcDbEntity
  8
0
100
AcDbFaceRecord
 10
0.0
 20
0.0
 30
0.0
 70
   128
 71
  -134
 72
  -135
 73
   136
  0
VERTEX
  5
750
330
633
100
AcDbEntity
  8
0
100
AcDbFaceRecord
 10
0.0
 20
0.0
 30
0.0
 70
   128
 71
  -136
 72
   135
 73
  -137
  0
VERTEX
  5
751
330
633
100
AcDbEntity
  8
0
100
AcDbFaceRecord
 10
0.0
 20
0.0
 30
0.0
 70
   128
 71
  -136
 72
  -137
 73
   138
  0
VERTEX
  5
752
330
633
100
AcDbEntity
  8
0
100
AcDbFaceRecord
 10
0.0
 20
0.0
 30
0.0
 70
   128
 71
  -138
 72
   137
 73
  -139
  0
VERTEX
  5
753
330
633
100
AcDbEntity
  8
0
100
AcDbFaceRecord
 10
0.0
 20
0.0
 30
0.0
 70
   128
 71
  -138
 72
   139
 73
   140
  0
VERTEX
  5
754
330
633
100
AcDbEntity
  8
0
100
AcDbFaceRecord
 10
0.0
 20
0.0
 30
0.0
 70
   128
 71
   -25
 72
   141
 73
   -23
  0
VERTEX
  5
755
330
633
100
AcDbEntity
  8
0
100
AcDbFaceRecord
 10
0.0
 20
0.0
 30
0.0
 70
   128
 71
  -141
 72
    25
 73
  -142
  0
VERTEX
  5
756
330
633
100
AcDbEntity
  8
0
100
AcDbFaceRecord
 10
0.0
 20
0.0
 30
0.0
 70
   128
 71
  -141
 72
   142
 73
  -143
  0
VERTEX
  5
757
330
633
100
AcDbEntity
  8
0
100
AcDbFaceRecord
 10
0.0
 20
0.0
 30
0.0
 70
   128
 71
  -141
 72
  -143
 73
   144
  0
VERTEX
  5
758
330
633
100
AcDbEntity
  8
0
100
AcDbFaceRecord
 10
0.0
 20
0.0
 30
0.0
 70
   128
 71
  -144
 72
   143
 73
  -145
  0
VERTEX
  5
759
330
633
100
AcDbEntity
  8
0
100
AcDbFaceRecord
 10
0.0
 20
0.0
 30
0.0
 70
   128
 71
  -144
 72
  -145
 73
   146
  0
VERTEX
  5
75A
330
633
100
AcDbEntity
  8
0
100
AcDbFaceRecord
 10
0.0
 20
0.0
 30
0.0
 70
   128
 71
  -146
 72
   145
 73
  -147
  0
VERTEX
  5
75B
330
633
100
AcDbEntity
  8
0
100
AcDbFaceRecord
 10
0.0
 20
0.0
 30
0.0
 70
   128
 71
  -146
 72
  -147
 73
   148
  0
VERTEX
  5
75C
330
633
100
AcDbEntity
  8
0
100
AcDbFaceRecord
 10
0.0
 20
0.0
 30
0.0
 70
   128
 71
  -148
 72
   147
 73
  -149
  0
VERTEX
  5
75D
330
633
100
AcDbEntity
  8
0
100
AcDbFaceRecord
 10
0.0
 20
0.0
 30
0.0
 70
   128
 71
  -148
 72
   149
 73
   150
  0
SEQEND
  5
75E
330
633
100
AcDbEntity
  8
0
  0
POLYLINE
  5
75F
330
1F
100
AcDbEntity
  8
0
100
AcDbPolyFaceMesh
 66
     1
 10
0.0
 20
0.0
 30
0.0
 70
    64
 71
     4
 72
     2
  0
VERTEX
  5
760
330
75F
100
AcDbEntity
  8
0
100
AcDbVertex
100
AcDbPolyFaceMeshVertex
 10
188.7416942044925
 20
182.3401171404543
 30
5.000000000000397
 70
   192
  0
VERTEX
  5
761
330
75F
100
AcDbEntity
  8
0
100
AcDbVertex
100
AcDbPolyFaceMeshVertex
 10
178.9602844464488
 20
180.1736572606886
 30
0.0000000000002707
 70
   192
  0
VERTEX
  5
762
330
75F
100
AcDbEntity
  8
0
100
AcDbVertex
100
AcDbPolyFaceMeshVertex
 10
183.8883961611394
 20
181.0184764117784
 30
0.0000000000002707
 70
   192
  0
VERTEX
  5
763
330
75F
100
AcDbEntity
  8
0
100
AcDbVertex
100
AcDbPolyFaceMeshVertex
 10
178.885471656359
 20
180.6504789893457
 30
5.000000000000126
 70
   192
  0
VERTEX
  5
764
330
75F
100
AcDbEntity
  8
0
100
AcDbFaceRecord
 10
0.0
 20
0.0
 30
0.0
 70
   128
 71
    -1
 72
     2
 73
     3
  0
VERTEX
  5
765
330
75F
100
AcDbEntity
  8
0
100
AcDbFaceRecord
 10
0.0
 20
0.0
 30
0.0
 70
   128
 71
    -2
 72
     1
 73
     4
  0
SEQEND
  5
766
330
75F
100
AcDbEntity
  8
0
  0
POLYLINE
  5
767
330
1F
100
AcDbEntity
  8
0
100
AcDbPolyFaceMesh
 66
     1
 10
0.0
 20
0.0
 30
0.0
 70
    64
 71
     4
 72
     2
  0
VERTEX
  5
768
330
767
100
AcDbEntity
  8
0
100
AcDbVertex
100
AcDbPolyFaceMeshVertex
 10
178.885471656359
 20
180.6504789893457
 30
5.000000000000126
 70
   192
  0
VERTEX
  5
769
330
767
100
AcDbEntity
  8
0
100
AcDbVertex
100
AcDbPolyFaceMeshVertex
 10
176.4668793620926
 20
179.4005040886113
 30
0.000000000000361
 70
   192
  0
VERTEX
  5
76A
330
767
100
AcDbEntity
  8
0
100
AcDbVertex
100
AcDbPolyFaceMeshVertex
 10
178.9602844464488
 20
180.1736572606886
 30
0.0000000000002707
 70
   192
  0
VERTEX
  5
76B
330
767
100
AcDbEntity
  8
0
100
AcDbVertex
100
AcDbPolyFaceMeshVertex
 10
176.3920665720034
 20
179.8773258172685
 30
5.000000000000217
 70
   192
  0
VERTEX
  5
76C
330
767
100
AcDbEntity
  8
0
100
AcDbFaceRecord
 10
0.0
 20
0.0
 30
0.0
 70
   128
 71
    -1
 72
     2
 73
     3
  0
VERTEX
  5
76D
330
767
100
AcDbEntity
  8
0
100
AcDbFaceRecord
 10
0.0
 20
0.0
 30
0.0
 70
   128
 71
    -2
 72
     1
 73
     4
  0
SEQEND
  5
76E
330
767
100
AcDbEntity
  8
0
  0
POLYLINE
  5
76F
330
1F
100
AcDbEntity
  8
0
100
AcDbPolyFaceMesh
 66
     1
 10
0.0
 20
0.0
 30
0.0
 70
    64
 71
   150
 72
   148
  0
VERTEX
  5
770
330
76F
100
AcDbEntity
  8
0
100
AcDbVertex
100
AcDbPolyFaceMeshVertex
 10
64.20532070649675
 20
345.0718887259338
 30
0.0000000000002707
 70
   192
  0
VERTEX
  5
771
330
76F
100
AcDbEntity
  8
0
100
AcDbVertex
100
AcDbPolyFaceMeshVertex
 10
17.47579261494217
 20
2.286246423470606
 30
0.000000000000361
 70
   192
  0
VERTEX
  5
772
330
76F
100
AcDbEntity
  8
0
100
AcDbVertex
100
AcDbPolyFaceMeshVertex
 10
4.227958527057805
 20
4.397300519405107
 30
0.0000000000004512
 70
   192
  0
VERTEX
  5
773
330
76F
100
AcDbEntity
  8
0
100
AcDbVertex
100
AcDbPolyFaceMeshVertex
 10
35.73446099989422
 20
-0.0957529895331696
 30
0.000000000000361
 70
   192
  0
VERTEX
  5
774
330
76F
100
AcDbEntity
  8
0
100
AcDbVertex
100
AcDbPolyFaceMeshVertex
 10
54.05321311492199
 20
-1.960213593385109
 30
0.0000000000002707
 70
   192
  0
VERTEX
  5
775
330
76F
100
AcDbEntity
  8
0
100
AcDbVertex
100
AcDbPolyFaceMeshVertex
 10
72.4173823874627
 20
-3.305642641931713
 30
0.0000000000002707
 70
   192
  0
VERTEX
  5
776
330
76F
100
AcDbEntity
  8
0
100
AcDbVertex
100
AcDbPolyFaceMeshVertex
 10
147.6144302944481
 20
311.7693920984165
 30
0.0000000000002707
 70
   192
  0
VERTEX
  5
777
330
76F
100
AcDbEntity
  8
0
100
AcDbVertex
100
AcDbPolyFaceMeshVertex
 10
155.7718821278208
 20
345.0718887259337
 30
0.000000000000361
 70
   192
  0
VERTEX
  5
778
330
76F
100
AcDbEntity
  8
0
100
AcDbVertex
100
AcDbPolyFaceMeshVertex
 10
147.0372980403055
 20
309.2234633674002
 30
0.000000000000361
 70
   192
  0
VERTEX
  5
779
330
76F
100
AcDbEntity
  8
0
100
AcDbVertex
100
AcDbPolyFaceMeshVertex
 10
90.81226588253485
 20
-4.130962942106907
 30
0.0000000000005414
 70
   192
  0
VERTEX
  5
77A
330
76F
100
AcDbEntity
  8
0
100
AcDbVertex
100
AcDbPolyFaceMeshVertex
 10
109.2231360743823
 20
-4.435513716363966
 30
0.0000000000004512
 70
   192
  0
VERTEX
  5
77B
330
76F
100
AcDbEntity
  8
0
100
AcDbVertex
100
AcDbPolyFaceMeshVertex
 10
127.6352526377936
 20
-4.219051131717289
 30
0.000000000000361
 70
   192
  0
VERTEX
  5
77C
330
76F
100
AcDbEntity
  8
0
100
AcDbVertex
100
AcDbPolyFaceMeshVertex
 10
146.03387424967
 20
-3.481748494960786
 30
0.0000000000002707
 70
   192
  0
VERTEX
  5
77D
330
76F
100
AcDbEntity
  8
0
100
AcDbVertex
100
AcDbPolyFaceMeshVertex
 10
148.8308320869696
 20
314.0791975926816
 30
0.0000000000002707
 70
   192
  0
VERTEX
  5
77E
330
76F
100
AcDbEntity
  8
0
100
AcDbVertex
100
AcDbPolyFaceMeshVertex
 10
150.6036076459083
 20
315.9954704228952
 30
0.0000000000004512
 70
   192
  0
VERTEX
  5
77F
330
76F
100
AcDbEntity
  8
0
100
AcDbVertex
100
AcDbPolyFaceMeshVertex
 10
152.8119452465735
 20
317.3876197624687
 30
0.0000000000002707
 70
   192
  0
VERTEX
  5
780
330
76F
100
AcDbEntity
  8
0
100
AcDbVertex
100
AcDbPolyFaceMeshVertex
 10
155.3053503309298
 20
318.1607729345459
 30
0.000000000000361
 70
   192
  0
VERTEX
  5
781
330
76F
100
AcDbEntity
  8
0
100
AcDbVertex
100
AcDbPolyFaceMeshVertex
 10
160.2334620456203
 20
319.0055920856357
 30
0.0000000000002707
 70
   192
  0
VERTEX
  5
782
330
76F
100
AcDbEntity
  8
0
100
AcDbVertex
100
AcDbPolyFaceMeshVertex
 10
147.1387659339058
 20
306.6149122353049
 30
0.000000000000361
 70
   192
  0
VERTEX
  5
783
330
76F
100
AcDbEntity
  8
0
100
AcDbVertex
100
AcDbPolyFaceMeshVertex
 10
164.4042703913994
 20
-2.224196113914515
 30
0.0000000000004512
 70
   192
  0
VERTEX
  5
784
330
76F
100
AcDbEntity
  8
0
100
AcDbVertex
100
AcDbPolyFaceMeshVertex
 10
147.9119191059831
 20
304.1215071509488
 30
0.0000000000000902
 70
   192
  0
VERTEX
  5
785
330
76F
100
AcDbEntity
  8
0
100
AcDbVertex
100
AcDbPolyFaceMeshVertex
 10
149.3040684455567
 20
301.9131695502837
 30
0.0000000000002707
 70
   192
  0
VERTEX
  5
786
330
76F
100
AcDbEntity
  8
0
100
AcDbVertex
100
AcDbPolyFaceMeshVertex
 10
151.2203412757695
 20
300.1403939913446
 30
0.0000000000002707
 70
   192
  0
VERTEX
  5
787
330
76F
100
AcDbEntity
  8
0
100
AcDbVertex
100
AcDbPolyFaceMeshVertex
 10
153.0524994627849
 20
272.1181333168407
 30
0.000000000000361
 70
   192
  0
VERTEX
  5
788
330
76F
100
AcDbEntity
  8
0
100
AcDbVertex
100
AcDbPolyFaceMeshVertex
 10
152.9510315691853
 20
274.7266844489359
 30
0.0000000000002707
 70
   192
  0
VERTEX
  5
789
330
76F
100
AcDbEntity
  8
0
100
AcDbVertex
100
AcDbPolyFaceMeshVertex
 10
153.8256526348624
 20
269.6247282324845
 30
0.000000000000361
 70
   192
  0
VERTEX
  5
78A
330
76F
100
AcDbEntity
  8
0
100
AcDbVertex
100
AcDbPolyFaceMeshVertex
 10
155.2178019744363
 20
267.4163906318194
 30
0.000000000000361
 70
   192
  0
VERTEX
  5
78B
330
76F
100
AcDbEntity
  8
0
100
AcDbVertex
100
AcDbPolyFaceMeshVertex
 10
157.13407480465
 20
265.6436150728804
 30
0.0000000000002707
 70
   192
  0
VERTEX
  5
78C
330
76F
100
AcDbEntity
  8
0
100
AcDbVertex
100
AcDbPolyFaceMeshVertex
 10
158.8647650980646
 20
240.2299055304714
 30
0.0000000000004512
 70
   192
  0
VERTEX
  5
78D
330
76F
100
AcDbEntity
  8
0
100
AcDbVertex
100
AcDbPolyFaceMeshVertex
 10
158.9662329916646
 20
237.6213543983762
 30
0.0000000000002707
 70
   192
  0
VERTEX
  5
78E
330
76F
100
AcDbEntity
  8
0
100
AcDbVertex
100
AcDbPolyFaceMeshVertex
 10
159.7393861637422
 20
235.1279493140201
 30
0.0000000000004512
 70
   192
  0
VERTEX
  5
78F
330
76F
100
AcDbEntity
  8
0
100
AcDbVertex
100
AcDbPolyFaceMeshVertex
 10
161.1315355033158
 20
232.919611713355
 30
0.000000000000361
 70
   192
  0
VERTEX
  5
790
330
76F
100
AcDbEntity
  8
0
100
AcDbVertex
100
AcDbPolyFaceMeshVertex
 10
163.0478083335293
 20
231.1468361544159
 30
0.0000000000004512
 70
   192
  0
VERTEX
  5
791
330
76F
100
AcDbEntity
  8
0
100
AcDbVertex
100
AcDbPolyFaceMeshVertex
 10
164.7784986269444
 20
205.7331266120072
 30
0.0000000000002707
 70
   192
  0
VERTEX
  5
792
330
76F
100
AcDbEntity
  8
0
100
AcDbVertex
100
AcDbPolyFaceMeshVertex
 10
165.3576138277943
 20
229.9304343618947
 30
0.000000000000361
 70
   192
  0
VERTEX
  5
793
330
76F
100
AcDbEntity
  8
0
100
AcDbVertex
100
AcDbPolyFaceMeshVertex
 10
165.3556308810873
 20
208.2790553430235
 30
0.0000000000002707
 70
   192
  0
VERTEX
  5
794
330
76F
100
AcDbEntity
  8
0
100
AcDbVertex
100
AcDbPolyFaceMeshVertex
 10
166.5720326736086
 20
210.5888608372885
 30
0.000000000000361
 70
   192
  0
VERTEX
  5
795
330
76F
100
AcDbEntity
  8
0
100
AcDbVertex
100
AcDbPolyFaceMeshVertex
 10
167.9035425588105
 20
229.3533021077522
 30
0.0000000000004512
 70
   192
  0
VERTEX
  5
796
330
76F
100
AcDbEntity
  8
0
100
AcDbVertex
100
AcDbPolyFaceMeshVertex
 10
168.3448082325476
 20
212.5051336675023
 30
0.000000000000361
 70
   192
  0
VERTEX
  5
797
330
76F
100
AcDbEntity
  8
0
100
AcDbVertex
100
AcDbPolyFaceMeshVertex
 10
170.5120936909061
 20
229.4547700013521
 30
0.0000000000004512
 70
   192
  0
VERTEX
  5
798
330
76F
100
AcDbEntity
  8
0
100
AcDbVertex
100
AcDbPolyFaceMeshVertex
 10
170.5531458332123
 20
213.8972830070756
 30
0.0000000000002707
 70
   192
  0
VERTEX
  5
799
330
76F
100
AcDbEntity
  8
0
100
AcDbVertex
100
AcDbPolyFaceMeshVertex
 10
175.4402054055969
 20
230.2995891524419
 30
0.000000000000361
 70
   192
  0
VERTEX
  5
79A
330
76F
100
AcDbEntity
  8
0
100
AcDbVertex
100
AcDbPolyFaceMeshVertex
 10
173.0465509175689
 20
214.6704361791529
 30
0.0000000000002707
 70
   192
  0
VERTEX
  5
79B
330
76F
100
AcDbEntity
  8
0
100
AcDbVertex
100
AcDbPolyFaceMeshVertex
 10
177.9746624119476
 20
215.5152552924752
 30
-0.0000002235255231
 70
   192
  0
VERTEX
  5
79C
330
76F
100
AcDbEntity
  8
0
100
AcDbVertex
100
AcDbPolyFaceMeshVertex
 10
171.2713473566738
 20
195.4336554434302
 30
0.0000000000004512
 70
   192
  0
VERTEX
  5
79D
330
76F
100
AcDbEntity
  8
0
100
AcDbVertex
100
AcDbPolyFaceMeshVertex
 10
170.6922321558239
 20
171.2363476935427
 30
0.0000000000002707
 70
   192
  0
VERTEX
  5
79E
330
76F
100
AcDbEntity
  8
0
100
AcDbVertex
100
AcDbPolyFaceMeshVertex
 10
168.9615418624092
 20
196.6500572359517
 30
0.000000000000361
 70
   192
  0
VERTEX
  5
79F
330
76F
100
AcDbEntity
  8
0
100
AcDbVertex
100
AcDbPolyFaceMeshVertex
 10
171.2693644099662
 20
173.782276424559
 30
0.000000000000361
 70
   192
  0
VERTEX
  5
7A0
330
76F
100
AcDbEntity
  8
0
100
AcDbVertex
100
AcDbPolyFaceMeshVertex
 10
172.4857662024879
 20
176.0920819188239
 30
0.0000000000002707
 70
   192
  0
VERTEX
  5
7A1
330
76F
100
AcDbEntity
  8
0
100
AcDbVertex
100
AcDbPolyFaceMeshVertex
 10
173.8172760876905
 20
194.8565231892877
 30
0.0000000000004512
 70
   192
  0
VERTEX
  5
7A2
330
76F
100
AcDbEntity
  8
0
100
AcDbVertex
100
AcDbPolyFaceMeshVertex
 10
174.2585417614278
 20
178.0083547490376
 30
0.0000000000001805
 70
   192
  0
VERTEX
  5
7A3
330
76F
100
AcDbEntity
  8
0
100
AcDbVertex
100
AcDbPolyFaceMeshVertex
 10
176.4258272197862
 20
194.9579910828876
 30
0.000000000000361
 70
   192
  0
VERTEX
  5
7A4
330
76F
100
AcDbEntity
  8
0
100
AcDbVertex
100
AcDbPolyFaceMeshVertex
 10
176.4668793620926
 20
179.4005040886113
 30
0.000000000000361
 70
   192
  0
VERTEX
  5
7A5
330
76F
100
AcDbEntity
  8
0
100
AcDbVertex
100
AcDbPolyFaceMeshVertex
 10
181.353938934477
 20
195.8028102339774
 30
0.0000000000002707
 70
   192
  0
VERTEX
  5
7A6
330
76F
100
AcDbEntity
  8
0
100
AcDbVertex
100
AcDbPolyFaceMeshVertex
 10
178.9602844464488
 20
180.1736572606886
 30
0.0000000000002707
 70
   192
  0
VERTEX
  5
7A7
330
76F
100
AcDbEntity
  8
0
100
AcDbVertex
100
AcDbPolyFaceMeshVertex
 10
183.8883961611394
 20
181.0184764117784
 30
0.0000000000002707
 70
   192
  0
VERTEX
  5
7A8
330
76F
100
AcDbEntity
  8
0
100
AcDbVertex
100
AcDbPolyFaceMeshVertex
 10
177.1850808855541
 20
160.9368765249658
 30
0.000000000000361
 70
   192
  0
VERTEX
  5
7A9
330
76F
100
AcDbEntity
  8
0
100
AcDbVertex
100
AcDbPolyFaceMeshVertex
 10
176.6059656847044
 20
136.7395687750783
 30
0.000000000000361
 70
   192
  0
VERTEX
  5
7AA
330
76F
100
AcDbEntity
  8
0
100
AcDbVertex
100
AcDbPolyFaceMeshVertex
 10
174.8752753912889
 20
162.1532783174873
 30
0.000000000000361
 70
   192
  0
VERTEX
  5
7AB
330
76F
100
AcDbEntity
  8
0
100
AcDbVertex
100
AcDbPolyFaceMeshVertex
 10
177.183097938847
 20
139.2854975060947
 30
0.000000000000361
 70
   192
  0
VERTEX
  5
7AC
330
76F
100
AcDbEntity
  8
0
100
AcDbVertex
100
AcDbPolyFaceMeshVertex
 10
178.3994997313684
 20
141.5953030003598
 30
0.000000000000361
 70
   192
  0
VERTEX
  5
7AD
330
76F
100
AcDbEntity
  8
0
100
AcDbVertex
100
AcDbPolyFaceMeshVertex
 10
179.7310096165703
 20
160.3597442708234
 30
0.0000000000001805
 70
   192
  0
VERTEX
  5
7AE
330
76F
100
AcDbEntity
  8
0
100
AcDbVertex
100
AcDbPolyFaceMeshVertex
 10
180.1722752903069
 20
143.5115758305733
 30
0.0000000000002707
 70
   192
  0
VERTEX
  5
7AF
330
76F
100
AcDbEntity
  8
0
100
AcDbVertex
100
AcDbPolyFaceMeshVertex
 10
182.3395607486653
 20
160.4612121644233
 30
0.000000000000361
 70
   192
  0
VERTEX
  5
7B0
330
76F
100
AcDbEntity
  8
0
100
AcDbVertex
100
AcDbPolyFaceMeshVertex
 10
182.3806128909725
 20
144.9037251701467
 30
0.0000000000002707
 70
   192
  0
VERTEX
  5
7B1
330
76F
100
AcDbEntity
  8
0
100
AcDbVertex
100
AcDbPolyFaceMeshVertex
 10
187.2676724633565
 20
161.3060313155133
 30
0.000000000000361
 70
   192
  0
VERTEX
  5
7B2
330
76F
100
AcDbEntity
  8
0
100
AcDbVertex
100
AcDbPolyFaceMeshVertex
 10
184.874017975328
 20
145.6768783422244
 30
0.000000000000361
 70
   192
  0
VERTEX
  5
7B3
330
76F
100
AcDbEntity
  8
0
100
AcDbVertex
100
AcDbPolyFaceMeshVertex
 10
189.8021296900195
 20
146.5216974933143
 30
0.000000000000361
 70
   192
  0
VERTEX
  5
7B4
330
76F
100
AcDbEntity
  8
0
100
AcDbVertex
100
AcDbPolyFaceMeshVertex
 10
183.0988144144333
 20
126.4400976065017
 30
0.000000000000361
 70
   192
  0
VERTEX
  5
7B5
330
76F
100
AcDbEntity
  8
0
100
AcDbVertex
100
AcDbPolyFaceMeshVertex
 10
182.5196992135834
 20
102.242789856614
 30
0.0000000000001805
 70
   192
  0
VERTEX
  5
7B6
330
76F
100
AcDbEntity
  8
0
100
AcDbVertex
100
AcDbPolyFaceMeshVertex
 10
180.7890089201692
 20
127.6564993990228
 30
0.0000000000002707
 70
   192
  0
VERTEX
  5
7B7
330
76F
100
AcDbEntity
  8
0
100
AcDbVertex
100
AcDbPolyFaceMeshVertex
 10
183.096831467726
 20
104.7887185876303
 30
0.000000000000361
 70
   192
  0
VERTEX
  5
7B8
330
76F
100
AcDbEntity
  8
0
100
AcDbVertex
100
AcDbPolyFaceMeshVertex
 10
184.3132332602475
 20
107.0985240818954
 30
0.000000000000361
 70
   192
  0
VERTEX
  5
7B9
330
76F
100
AcDbEntity
  8
0
100
AcDbVertex
100
AcDbPolyFaceMeshVertex
 10
185.6447431454498
 20
125.862965352359
 30
0.0000000000004512
 70
   192
  0
VERTEX
  5
7BA
330
76F
100
AcDbEntity
  8
0
100
AcDbVertex
100
AcDbPolyFaceMeshVertex
 10
186.0860088191868
 20
109.0147969121088
 30
0.0000000000004512
 70
   192
  0
VERTEX
  5
7BB
330
76F
100
AcDbEntity
  8
0
100
AcDbVertex
100
AcDbPolyFaceMeshVertex
 10
188.2532942775451
 20
125.9644332459589
 30
0.0000000000002707
 70
   192
  0
VERTEX
  5
7BC
330
76F
100
AcDbEntity
  8
0
100
AcDbVertex
100
AcDbPolyFaceMeshVertex
 10
188.2943464198517
 20
110.4069462516823
 30
0.000000000000361
 70
   192
  0
VERTEX
  5
7BD
330
76F
100
AcDbEntity
  8
0
100
AcDbVertex
100
AcDbPolyFaceMeshVertex
 10
193.1814059922366
 20
126.8092523970489
 30
0.000000000000361
 70
   192
  0
VERTEX
  5
7BE
330
76F
100
AcDbEntity
  8
0
100
AcDbVertex
100
AcDbPolyFaceMeshVertex
 10
190.7877515042077
 20
111.1800994237601
 30
0.0000000000004512
 70
   192
  0
VERTEX
  5
7BF
330
76F
100
AcDbEntity
  8
0
100
AcDbVertex
100
AcDbPolyFaceMeshVertex
 10
195.715863218899
 20
112.0249185748499
 30
0.000000000000361
 70
   192
  0
VERTEX
  5
7C0
330
76F
100
AcDbEntity
  8
0
100
AcDbVertex
100
AcDbPolyFaceMeshVertex
 10
189.0125479433132
 20
91.94331868803724
 30
0.000000000000361
 70
   192
  0
VERTEX
  5
7C1
330
76F
100
AcDbEntity
  8
0
100
AcDbVertex
100
AcDbPolyFaceMeshVertex
 10
188.4334327424632
 20
67.74601093814945
 30
0.0000000000004512
 70
   192
  0
VERTEX
  5
7C2
330
76F
100
AcDbEntity
  8
0
100
AcDbVertex
100
AcDbPolyFaceMeshVertex
 10
186.7027424490481
 20
93.1597204805586
 30
0.0000000000002707
 70
   192
  0
VERTEX
  5
7C3
330
76F
100
AcDbEntity
  8
0
100
AcDbVertex
100
AcDbPolyFaceMeshVertex
 10
189.0105649966056
 20
70.29193966916591
 30
0.000000000000361
 70
   192
  0
VERTEX
  5
7C4
330
76F
100
AcDbEntity
  8
0
100
AcDbVertex
100
AcDbPolyFaceMeshVertex
 10
190.2269667891274
 20
72.60174516343092
 30
0.0000000000002707
 70
   192
  0
VERTEX
  5
7C5
330
76F
100
AcDbEntity
  8
0
100
AcDbVertex
100
AcDbPolyFaceMeshVertex
 10
191.5584766743296
 20
91.36618643389446
 30
0.0000000000002707
 70
   192
  0
VERTEX
  5
7C6
330
76F
100
AcDbEntity
  8
0
100
AcDbVertex
100
AcDbPolyFaceMeshVertex
 10
191.999742348066
 20
74.51801799364435
 30
0.0000000000002707
 70
   192
  0
VERTEX
  5
7C7
330
76F
100
AcDbEntity
  8
0
100
AcDbVertex
100
AcDbPolyFaceMeshVertex
 10
194.1670278064243
 20
91.46765432749444
 30
0.000000000000361
 70
   192
  0
VERTEX
  5
7C8
330
76F
100
AcDbEntity
  8
0
100
AcDbVertex
100
AcDbPolyFaceMeshVertex
 10
194.2080799487311
 20
75.91016733321803
 30
0.0000000000004512
 70
   192
  0
VERTEX
  5
7C9
330
76F
100
AcDbEntity
  8
0
100
AcDbVertex
100
AcDbPolyFaceMeshVertex
 10
199.0951395211158
 20
92.31247347858452
 30
0.000000000000361
 70
   192
  0
VERTEX
  5
7CA
330
76F
100
AcDbEntity
  8
0
100
AcDbVertex
100
AcDbPolyFaceMeshVertex
 10
196.7014850330869
 20
76.68332050529567
 30
0.0000000000002707
 70
   192
  0
VERTEX
  5
7CB
330
76F
100
AcDbEntity
  8
0
100
AcDbVertex
100
AcDbPolyFaceMeshVertex
 10
201.6295967477785
 20
77.52813965638556
 30
0.0000000000002707
 70
   192
  0
VERTEX
  5
7CC
330
76F
100
AcDbEntity
  8
0
100
AcDbVertex
100
AcDbPolyFaceMeshVertex
 10
194.9262814721925
 20
57.44653976957265
 30
0.000000000000361
 70
   192
  0
VERTEX
  5
7CD
330
76F
100
AcDbEntity
  8
0
100
AcDbVertex
100
AcDbPolyFaceMeshVertex
 10
194.347166271343
 20
33.24923201968512
 30
0.000000000000361
 70
   192
  0
VERTEX
  5
7CE
330
76F
100
AcDbEntity
  8
0
100
AcDbVertex
100
AcDbPolyFaceMeshVertex
 10
192.6164759779279
 20
58.66294156209401
 30
0.0000000000002707
 70
   192
  0
VERTEX
  5
7CF
330
76F
100
AcDbEntity
  8
0
100
AcDbVertex
100
AcDbPolyFaceMeshVertex
 10
194.9242985254855
 20
35.79516075070158
 30
0.0000000000001805
 70
   192
  0
VERTEX
  5
7D0
330
76F
100
AcDbEntity
  8
0
100
AcDbVertex
100
AcDbPolyFaceMeshVertex
 10
196.1407003180067
 20
38.1049662449666
 30
0.0000000000002707
 70
   192
  0
VERTEX
  5
7D1
330
76F
100
AcDbEntity
  8
0
100
AcDbVertex
100
AcDbPolyFaceMeshVertex
 10
197.4722102032091
 20
56.86940751543004
 30
0.0000000000002707
 70
   192
  0
VERTEX
  5
7D2
330
76F
100
AcDbEntity
  8
0
100
AcDbVertex
100
AcDbPolyFaceMeshVertex
 10
197.9134758769459
 20
40.02123907518003
 30
0.0000000000004512
 70
   192
  0
VERTEX
  5
7D3
330
76F
100
AcDbEntity
  8
0
100
AcDbVertex
100
AcDbPolyFaceMeshVertex
 10
200.080761335304
 20
56.97087540903004
 30
0.0000000000001805
 70
   192
  0
VERTEX
  5
7D4
330
76F
100
AcDbEntity
  8
0
100
AcDbVertex
100
AcDbPolyFaceMeshVertex
 10
200.1218134776106
 20
41.41338841475388
 30
0.000000000000361
 70
   192
  0
VERTEX
  5
7D5
330
76F
100
AcDbEntity
  8
0
100
AcDbVertex
100
AcDbPolyFaceMeshVertex
 10
205.0088730499958
 20
57.81569456012002
 30
0.000000000000361
 70
   192
  0
VERTEX
  5
7D6
330
76F
100
AcDbEntity
  8
0
100
AcDbVertex
100
AcDbPolyFaceMeshVertex
 10
202.615218561967
 20
42.18654158683126
 30
0.000000000000361
 70
   192
  0
VERTEX
  5
7D7
330
76F
100
AcDbEntity
  8
0
100
AcDbVertex
100
AcDbPolyFaceMeshVertex
 10
207.5433302766582
 20
43.03136073792142
 30
0.0000000000002707
 70
   192
  0
VERTEX
  5
7D8
330
76F
100
AcDbEntity
  8
0
100
AcDbVertex
100
AcDbPolyFaceMeshVertex
 10
164.8799665205439
 20
203.1245754799117
 30
0.000000000000361
 70
   192
  0
VERTEX
  5
7D9
330
76F
100
AcDbEntity
  8
0
100
AcDbVertex
100
AcDbPolyFaceMeshVertex
 10
182.7317331425762
 20
-0.4474008248046168
 30
0.000000000000361
 70
   192
  0
VERTEX
  5
7DA
330
76F
100
AcDbEntity
  8
0
100
AcDbVertex
100
AcDbPolyFaceMeshVertex
 10
165.6531196926217
 20
200.6311703955557
 30
0.000000000000361
 70
   192
  0
VERTEX
  5
7DB
330
76F
100
AcDbEntity
  8
0
100
AcDbVertex
100
AcDbPolyFaceMeshVertex
 10
167.0452690321954
 20
198.4228327948905
 30
0.0000000000002707
 70
   192
  0
VERTEX
  5
7DC
330
76F
100
AcDbEntity
  8
0
100
AcDbVertex
100
AcDbPolyFaceMeshVertex
 10
170.7937000494239
 20
168.6277965614476
 30
0.000000000000361
 70
   192
  0
VERTEX
  5
7DD
330
76F
100
AcDbEntity
  8
0
100
AcDbVertex
100
AcDbPolyFaceMeshVertex
 10
171.5668532215014
 20
166.1343914770914
 30
0.0000000000004512
 70
   192
  0
VERTEX
  5
7DE
330
76F
100
AcDbEntity
  8
0
100
AcDbVertex
100
AcDbPolyFaceMeshVertex
 10
172.9590025610752
 20
163.9260538764263
 30
0.000000000000361
 70
   192
  0
VERTEX
  5
7DF
330
76F
100
AcDbEntity
  8
0
100
AcDbVertex
100
AcDbPolyFaceMeshVertex
 10
176.7074335783043
 20
134.1310176429832
 30
0.0000000000001805
 70
   192
  0
VERTEX
  5
7E0
330
76F
100
AcDbEntity
  8
0
100
AcDbVertex
100
AcDbPolyFaceMeshVertex
 10
177.4805867503812
 20
131.6376125586268
 30
0.0000000000002707
 70
   192
  0
VERTEX
  5
7E1
330
76F
100
AcDbEntity
  8
0
100
AcDbVertex
100
AcDbPolyFaceMeshVertex
 10
178.872736089955
 20
129.4292749579619
 30
0.000000000000361
 70
   192
  0
VERTEX
  5
7E2
330
76F
100
AcDbEntity
  8
0
100
AcDbVertex
100
AcDbPolyFaceMeshVertex
 10
182.6211671071838
 20
99.63423872451882
 30
0.0000000000005414
 70
   192
  0
VERTEX
  5
7E3
330
76F
100
AcDbEntity
  8
0
100
AcDbVertex
100
AcDbPolyFaceMeshVertex
 10
183.3943202792612
 20
97.14083364016253
 30
0.0000000000002707
 70
   192
  0
VERTEX
  5
7E4
330
76F
100
AcDbEntity
  8
0
100
AcDbVertex
100
AcDbPolyFaceMeshVertex
 10
188.534900636063
 20
65.13745980605422
 30
0.000000000000361
 70
   192
  0
VERTEX
  5
7E5
330
76F
100
AcDbEntity
  8
0
100
AcDbVertex
100
AcDbPolyFaceMeshVertex
 10
194.4486341649432
 20
30.64068088759009
 30
0.000000000000361
 70
   192
  0
VERTEX
  5
7E6
330
76F
100
AcDbEntity
  8
0
100
AcDbVertex
100
AcDbPolyFaceMeshVertex
 10
201.0015889566226
 20
1.847214813840571
 30
0.0000000000002707
 70
   192
  0
VERTEX
  5
7E7
330
76F
100
AcDbEntity
  8
0
100
AcDbVertex
100
AcDbPolyFaceMeshVertex
 10
184.7864696188344
 20
94.9324960394975
 30
0.0000000000001805
 70
   192
  0
VERTEX
  5
7E8
330
76F
100
AcDbEntity
  8
0
100
AcDbVertex
100
AcDbPolyFaceMeshVertex
 10
189.3080538081401
 20
62.64405472169802
 30
0.0000000000002707
 70
   192
  0
VERTEX
  5
7E9
330
76F
100
AcDbEntity
  8
0
100
AcDbVertex
100
AcDbPolyFaceMeshVertex
 10
190.7002031477139
 20
60.43571712103318
 30
0.0000000000004512
 70
   192
  0
VERTEX
  5
7EA
330
76F
100
AcDbEntity
  8
0
100
AcDbVertex
100
AcDbPolyFaceMeshVertex
 10
195.2217873370205
 20
28.14727580323379
 30
0.0000000000005414
 70
   192
  0
VERTEX
  5
7EB
330
76F
100
AcDbEntity
  8
0
100
AcDbVertex
100
AcDbPolyFaceMeshVertex
 10
196.6139366765938
 20
25.93893820256904
 30
0.0000000000005414
 70
   192
  0
VERTEX
  5
7EC
330
76F
100
AcDbEntity
  8
0
100
AcDbVertex
100
AcDbPolyFaceMeshVertex
 10
198.5302095068074
 20
24.16616264362969
 30
0.0000000000002707
 70
   192
  0
VERTEX
  5
7ED
330
76F
100
AcDbEntity
  8
0
100
AcDbVertex
100
AcDbPolyFaceMeshVertex
 10
200.8400150010726
 20
22.94976085110823
 30
0.000000000000361
 70
   192
  0
VERTEX
  5
7EE
330
76F
100
AcDbEntity
  8
0
100
AcDbVertex
100
AcDbPolyFaceMeshVertex
 10
203.3859437320889
 20
22.37262859696572
 30
0.0000000000002707
 70
   192
  0
VERTEX
  5
7EF
330
76F
100
AcDbEntity
  8
0
100
AcDbVertex
100
AcDbPolyFaceMeshVertex
 10
214.2593724002449
 20
3.894862136805923
 30
0.0000000000005414
 70
   192
  0
VERTEX
  5
7F0
330
76F
100
AcDbEntity
  8
0
100
AcDbVertex
100
AcDbPolyFaceMeshVertex
 10
205.9944948641838
 20
22.47409649056562
 30
0.0000000000004512
 70
   192
  0
VERTEX
  5
7F1
330
76F
100
AcDbEntity
  8
0
100
AcDbVertex
100
AcDbPolyFaceMeshVertex
 10
210.9226065788754
 20
23.31891564165543
 30
0.0000000000002707
 70
   192
  0
VERTEX
  5
7F2
330
76F
100
AcDbEntity
  8
0
100
AcDbVertex
100
AcDbPolyFaceMeshVertex
 10
153.5301467700351
 20
298.9239921988233
 30
0.000000000000361
 70
   192
  0
VERTEX
  5
7F3
330
76F
100
AcDbEntity
  8
0
100
AcDbVertex
100
AcDbPolyFaceMeshVertex
 10
153.5281638233278
 20
277.2726131799522
 30
0.0000000000004512
 70
   192
  0
VERTEX
  5
7F4
330
76F
100
AcDbEntity
  8
0
100
AcDbVertex
100
AcDbPolyFaceMeshVertex
 10
154.7445656158493
 20
279.5824186742172
 30
0.000000000000361
 70
   192
  0
VERTEX
  5
7F5
330
76F
100
AcDbEntity
  8
0
100
AcDbVertex
100
AcDbPolyFaceMeshVertex
 10
156.0760755010516
 20
298.3468599446808
 30
0.0000000000002707
 70
   192
  0
VERTEX
  5
7F6
330
76F
100
AcDbEntity
  8
0
100
AcDbVertex
100
AcDbPolyFaceMeshVertex
 10
156.5173411747882
 20
281.4986915044307
 30
0.0000000000004512
 70
   192
  0
VERTEX
  5
7F7
330
76F
100
AcDbEntity
  8
0
100
AcDbVertex
100
AcDbPolyFaceMeshVertex
 10
158.6846266331466
 20
298.4483278382808
 30
0.0000000000002707
 70
   192
  0
VERTEX
  5
7F8
330
76F
100
AcDbEntity
  8
0
100
AcDbVertex
100
AcDbPolyFaceMeshVertex
 10
158.725678775453
 20
282.8908408440045
 30
0.0000000000004512
 70
   192
  0
VERTEX
  5
7F9
330
76F
100
AcDbEntity
  8
0
100
AcDbVertex
100
AcDbPolyFaceMeshVertex
 10
163.6127383478371
 20
299.2931469893705
 30
0.0000000000002707
 70
   192
  0
VERTEX
  5
7FA
330
76F
100
AcDbEntity
  8
0
100
AcDbVertex
100
AcDbPolyFaceMeshVertex
 10
161.2190838598095
 20
283.6639940160817
 30
0.0000000000002707
 70
   192
  0
VERTEX
  5
7FB
330
76F
100
AcDbEntity
  8
0
100
AcDbVertex
100
AcDbPolyFaceMeshVertex
 10
166.1471955744996
 20
284.5088131671715
 30
0.0000000000001805
 70
   192
  0
VERTEX
  5
7FC
330
76F
100
AcDbEntity
  8
0
100
AcDbVertex
100
AcDbPolyFaceMeshVertex
 10
159.4438802989146
 20
264.427213280359
 30
0.0000000000002707
 70
   192
  0
VERTEX
  5
7FD
330
76F
100
AcDbEntity
  8
0
100
AcDbVertex
100
AcDbPolyFaceMeshVertex
 10
159.4418973522071
 20
242.7758342614879
 30
0.0000000000004512
 70
   192
  0
VERTEX
  5
7FE
330
76F
100
AcDbEntity
  8
0
100
AcDbVertex
100
AcDbPolyFaceMeshVertex
 10
160.6582991447288
 20
245.0856397557529
 30
0.0000000000004512
 70
   192
  0
VERTEX
  5
7FF
330
76F
100
AcDbEntity
  8
0
100
AcDbVertex
100
AcDbPolyFaceMeshVertex
 10
161.9898090299309
 20
263.8500810262166
 30
0.0000000000002707
 70
   192
  0
VERTEX
  5
800
330
76F
100
AcDbEntity
  8
0
100
AcDbVertex
100
AcDbPolyFaceMeshVertex
 10
162.431074703668
 20
247.0019125859666
 30
0.0000000000002707
 70
   192
  0
VERTEX
  5
801
330
76F
100
AcDbEntity
  8
0
100
AcDbVertex
100
AcDbPolyFaceMeshVertex
 10
164.5983601620262
 20
263.9515489198164
 30
0.0000000000005414
 70
   192
  0
VERTEX
  5
802
330
76F
100
AcDbEntity
  8
0
100
AcDbVertex
100
AcDbPolyFaceMeshVertex
 10
164.6394123043325
 20
248.3940619255398
 30
0.000000000000361
 70
   192
  0
VERTEX
  5
803
330
76F
100
AcDbEntity
  8
0
100
AcDbVertex
100
AcDbPolyFaceMeshVertex
 10
169.5264718767171
 20
264.7963680709062
 30
0.0000000000004512
 70
   192
  0
VERTEX
  5
804
330
76F
100
AcDbEntity
  8
0
100
AcDbVertex
100
AcDbPolyFaceMeshVertex
 10
167.1328173886891
 20
249.1672150976173
 30
0.0000000000002707
 70
   192
  0
VERTEX
  5
805
330
76F
100
AcDbEntity
  8
0
100
AcDbVertex
100
AcDbPolyFaceMeshVertex
 10
172.0609291033796
 20
250.0120342487074
 30
0.0000000000004512
 70
   192
  0
VERTEX
  5
806
330
76F
100
AcDbEntity
  8
0
100
AcDbFaceRecord
 10
0.0
 20
0.0
 30
0.0
 70
   128
 71
    -1
 72
     2
 73
     3
  0
VERTEX
  5
807
330
76F
100
AcDbEntity
  8
0
100
AcDbFaceRecord
 10
0.0
 20
0.0
 30
0.0
 70
   128
 71
    -2
 72
    -1
 73
     4
  0
VERTEX
  5
808
330
76F
100
AcDbEntity
  8
0
100
AcDbFaceRecord
 10
0.0
 20
0.0
 30
0.0
 70
   128
 71
    -4
 72
    -1
 73
     5
  0
VERTEX
  5
809
330
76F
100
AcDbEntity
  8
0
100
AcDbFaceRecord
 10
0.0
 20
0.0
 30
0.0
 70
   128
 71
    -5
 72
    -1
 73
     6
  0
VERTEX
  5
80A
330
76F
100
AcDbEntity
  8
0
100
AcDbFaceRecord
 10
0.0
 20
0.0
 30
0.0
 70
   128
 71
    -6
 72
    -1
 73
    -7
  0
VERTEX
  5
80B
330
76F
100
AcDbEntity
  8
0
100
AcDbFaceRecord
 10
0.0
 20
0.0
 30
0.0
 70
   128
 71
    -7
 72
     1
 73
    -8
  0
VERTEX
  5
80C
330
76F
100
AcDbEntity
  8
0
100
AcDbFaceRecord
 10
0.0
 20
0.0
 30
0.0
 70
   128
 71
    -6
 72
     7
 73
    -9
  0
VERTEX
  5
80D
330
76F
100
AcDbEntity
  8
0
100
AcDbFaceRecord
 10
0.0
 20
0.0
 30
0.0
 70
   128
 71
    -6
 72
    -9
 73
    10
  0
VERTEX
  5
80E
330
76F
100
AcDbEntity
  8
0
100
AcDbFaceRecord
 10
0.0
 20
0.0
 30
0.0
 70
   128
 71
   -10
 72
    -9
 73
    11
  0
VERTEX
  5
80F
330
76F
100
AcDbEntity
  8
0
100
AcDbFaceRecord
 10
0.0
 20
0.0
 30
0.0
 70
   128
 71
   -11
 72
    -9
 73
    12
  0
VERTEX
  5
810
330
76F
100
AcDbEntity
  8
0
100
AcDbFaceRecord
 10
0.0
 20
0.0
 30
0.0
 70
   128
 71
   -12
 72
    -9
 73
    13
  0
VERTEX
  5
811
330
76F
100
AcDbEntity
  8
0
100
AcDbFaceRecord
 10
0.0
 20
0.0
 30
0.0
 70
   128
 71
    -7
 72
    -8
 73
    14
  0
VERTEX
  5
812
330
76F
100
AcDbEntity
  8
0
100
AcDbFaceRecord
 10
0.0
 20
0.0
 30
0.0
 70
   128
 71
   -14
 72
    -8
 73
    15
  0
VERTEX
  5
813
330
76F
100
AcDbEntity
  8
0
100
AcDbFaceRecord
 10
0.0
 20
0.0
 30
0.0
 70
   128
 71
   -15
 72
    -8
 73
    16
  0
VERTEX
  5
814
330
76F
100
AcDbEntity
  8
0
100
AcDbFaceRecord
 10
0.0
 20
0.0
 30
0.0
 70
   128
 71
   -16
 72
    -8
 73
    17
  0
VERTEX
  5
815
330
76F
100
AcDbEntity
  8
0
100
AcDbFaceRecord
 10
0.0
 20
0.0
 30
0.0
 70
   128
 71
   -17
 72
     8
 73
    18
  0
VERTEX
  5
816
330
76F
100
AcDbEntity
  8
0
100
AcDbFaceRecord
 10
0.0
 20
0.0
 30
0.0
 70
   128
 71
   -13
 72
   -19
 73
    20
  0
VERTEX
  5
817
330
76F
100
AcDbEntity
  8
0
100
AcDbFaceRecord
 10
0.0
 20
0.0
 30
0.0
 70
   128
 71
   -19
 72
   -13
 73
     9
  0
VERTEX
  5
818
330
76F
100
AcDbEntity
  8
0
100
AcDbFaceRecord
 10
0.0
 20
0.0
 30
0.0
 70
   128
 71
   -20
 72
    19
 73
   -21
  0
VERTEX
  5
819
330
76F
100
AcDbEntity
  8
0
100
AcDbFaceRecord
 10
0.0
 20
0.0
 30
0.0
 70
   128
 71
   -20
 72
    21
 73
   -22
  0
VERTEX
  5
81A
330
76F
100
AcDbEntity
  8
0
100
AcDbFaceRecord
 10
0.0
 20
0.0
 30
0.0
 70
   128
 71
   -20
 72
    22
 73
   -23
  0
VERTEX
  5
81B
330
76F
100
AcDbEntity
  8
0
100
AcDbFaceRecord
 10
0.0
 20
0.0
 30
0.0
 70
   128
 71
   -20
 72
   -23
 73
   -24
  0
VERTEX
  5
81C
330
76F
100
AcDbEntity
  8
0
100
AcDbFaceRecord
 10
0.0
 20
0.0
 30
0.0
 70
   128
 71
   -24
 72
   -23
 73
    25
  0
VERTEX
  5
81D
330
76F
100
AcDbEntity
  8
0
100
AcDbFaceRecord
 10
0.0
 20
0.0
 30
0.0
 70
   128
 71
   -20
 72
    24
 73
   -26
  0
VERTEX
  5
81E
330
76F
100
AcDbEntity
  8
0
100
AcDbFaceRecord
 10
0.0
 20
0.0
 30
0.0
 70
   128
 71
   -20
 72
    26
 73
   -27
  0
VERTEX
  5
81F
330
76F
100
AcDbEntity
  8
0
100
AcDbFaceRecord
 10
0.0
 20
0.0
 30
0.0
 70
   128
 71
   -20
 72
    27
 73
   -28
  0
VERTEX
  5
820
330
76F
100
AcDbEntity
  8
0
100
AcDbFaceRecord
 10
0.0
 20
0.0
 30
0.0
 70
   128
 71
   -20
 72
   -28
 73
   -29
  0
VERTEX
  5
821
330
76F
100
AcDbEntity
  8
0
100
AcDbFaceRecord
 10
0.0
 20
0.0
 30
0.0
 70
   128
 71
   -20
 72
    29
 73
   -30
  0
VERTEX
  5
822
330
76F
100
AcDbEntity
  8
0
100
AcDbFaceRecord
 10
0.0
 20
0.0
 30
0.0
 70
   128
 71
   -20
 72
    30
 73
   -31
  0
VERTEX
  5
823
330
76F
100
AcDbEntity
  8
0
100
AcDbFaceRecord
 10
0.0
 20
0.0
 30
0.0
 70
   128
 71
   -20
 72
    31
 73
   -32
  0
VERTEX
  5
824
330
76F
100
AcDbEntity
  8
0
100
AcDbFaceRecord
 10
0.0
 20
0.0
 30
0.0
 70
   128
 71
   -20
 72
    32
 73
   -33
  0
VERTEX
  5
825
330
76F
100
AcDbEntity
  8
0
100
AcDbFaceRecord
 10
0.0
 20
0.0
 30
0.0
 70
   128
 71
   -20
 72
   -33
 73
   -34
  0
VERTEX
  5
826
330
76F
100
AcDbEntity
  8
0
100
AcDbFaceRecord
 10
0.0
 20
0.0
 30
0.0
 70
   128
 71
   -34
 72
    33
 73
   -35
  0
VERTEX
  5
827
330
76F
100
AcDbEntity
  8
0
100
AcDbFaceRecord
 10
0.0
 20
0.0
 30
0.0
 70
   128
 71
   -34
 72
   -35
 73
    36
  0
VERTEX
  5
828
330
76F
100
AcDbEntity
  8
0
100
AcDbFaceRecord
 10
0.0
 20
0.0
 30
0.0
 70
   128
 71
   -36
 72
   -35
 73
    37
  0
VERTEX
  5
829
330
76F
100
AcDbEntity
  8
0
100
AcDbFaceRecord
 10
0.0
 20
0.0
 30
0.0
 70
   128
 71
   -37
 72
    35
 73
   -38
  0
VERTEX
  5
82A
330
76F
100
AcDbEntity
  8
0
100
AcDbFaceRecord
 10
0.0
 20
0.0
 30
0.0
 70
   128
 71
   -37
 72
   -38
 73
    39
  0
VERTEX
  5
82B
330
76F
100
AcDbEntity
  8
0
100
AcDbFaceRecord
 10
0.0
 20
0.0
 30
0.0
 70
   128
 71
   -39
 72
    38
 73
   -40
  0
VERTEX
  5
82C
330
76F
100
AcDbEntity
  8
0
100
AcDbFaceRecord
 10
0.0
 20
0.0
 30
0.0
 70
   128
 71
   -39
 72
   -40
 73
    41
  0
VERTEX
  5
82D
330
76F
100
AcDbEntity
  8
0
100
AcDbFaceRecord
 10
0.0
 20
0.0
 30
0.0
 70
   128
 71
   -41
 72
    40
 73
   -42
  0
VERTEX
  5
82E
330
76F
100
AcDbEntity
  8
0
100
AcDbFaceRecord
 10
0.0
 20
0.0
 30
0.0
 70
   128
 71
   -41
 72
   -42
 73
    43
  0
VERTEX
  5
82F
330
76F
100
AcDbEntity
  8
0
100
AcDbFaceRecord
 10
0.0
 20
0.0
 30
0.0
 70
   128
 71
   -43
 72
    42
 73
    44
  0
VERTEX
  5
830
330
76F
100
AcDbEntity
  8
0
100
AcDbFaceRecord
 10
0.0
 20
0.0
 30
0.0
 70
   128
 71
   -45
 72
   -46
 73
    47
  0
VERTEX
  5
831
330
76F
100
AcDbEntity
  8
0
100
AcDbFaceRecord
 10
0.0
 20
0.0
 30
0.0
 70
   128
 71
   -46
 72
   -45
 73
    48
  0
VERTEX
  5
832
330
76F
100
AcDbEntity
  8
0
100
AcDbFaceRecord
 10
0.0
 20
0.0
 30
0.0
 70
   128
 71
   -48
 72
   -45
 73
    49
  0
VERTEX
  5
833
330
76F
100
AcDbEntity
  8
0
100
AcDbFaceRecord
 10
0.0
 20
0.0
 30
0.0
 70
   128
 71
   -49
 72
    45
 73
   -50
  0
VERTEX
  5
834
330
76F
100
AcDbEntity
  8
0
100
AcDbFaceRecord
 10
0.0
 20
0.0
 30
0.0
 70
   128
 71
   -49
 72
   -50
 73
    51
  0
VERTEX
  5
835
330
76F
100
AcDbEntity
  8
0
100
AcDbFaceRecord
 10
0.0
 20
0.0
 30
0.0
 70
   128
 71
   -51
 72
    50
 73
   -52
  0
VERTEX
  5
836
330
76F
100
AcDbEntity
  8
0
100
AcDbFaceRecord
 10
0.0
 20
0.0
 30
0.0
 70
   128
 71
   -51
 72
   -52
 73
    53
  0
VERTEX
  5
837
330
76F
100
AcDbEntity
  8
0
100
AcDbFaceRecord
 10
0.0
 20
0.0
 30
0.0
 70
   128
 71
   -53
 72
    52
 73
   -54
  0
VERTEX
  5
838
330
76F
100
AcDbEntity
  8
0
100
AcDbFaceRecord
 10
0.0
 20
0.0
 30
0.0
 70
   128
 71
   -53
 72
   -54
 73
    55
  0
VERTEX
  5
839
330
76F
100
AcDbEntity
  8
0
100
AcDbFaceRecord
 10
0.0
 20
0.0
 30
0.0
 70
   128
 71
   -55
 72
    54
 73
    56
  0
VERTEX
  5
83A
330
76F
100
AcDbEntity
  8
0
100
AcDbFaceRecord
 10
0.0
 20
0.0
 30
0.0
 70
   128
 71
   -57
 72
   -58
 73
    59
  0
VERTEX
  5
83B
330
76F
100
AcDbEntity
  8
0
100
AcDbFaceRecord
 10
0.0
 20
0.0
 30
0.0
 70
   128
 71
   -58
 72
   -57
 73
    60
  0
VERTEX
  5
83C
330
76F
100
AcDbEntity
  8
0
100
AcDbFaceRecord
 10
0.0
 20
0.0
 30
0.0
 70
   128
 71
   -60
 72
   -57
 73
    61
  0
VERTEX
  5
83D
330
76F
100
AcDbEntity
  8
0
100
AcDbFaceRecord
 10
0.0
 20
0.0
 30
0.0
 70
   128
 71
   -61
 72
    57
 73
   -62
  0
VERTEX
  5
83E
330
76F
100
AcDbEntity
  8
0
100
AcDbFaceRecord
 10
0.0
 20
0.0
 30
0.0
 70
   128
 71
   -61
 72
   -62
 73
    63
  0
VERTEX
  5
83F
330
76F
100
AcDbEntity
  8
0
100
AcDbFaceRecord
 10
0.0
 20
0.0
 30
0.0
 70
   128
 71
   -63
 72
    62
 73
   -64
  0
VERTEX
  5
840
330
76F
100
AcDbEntity
  8
0
100
AcDbFaceRecord
 10
0.0
 20
0.0
 30
0.0
 70
   128
 71
   -63
 72
   -64
 73
    65
  0
VERTEX
  5
841
330
76F
100
AcDbEntity
  8
0
100
AcDbFaceRecord
 10
0.0
 20
0.0
 30
0.0
 70
   128
 71
   -65
 72
    64
 73
   -66
  0
VERTEX
  5
842
330
76F
100
AcDbEntity
  8
0
100
AcDbFaceRecord
 10
0.0
 20
0.0
 30
0.0
 70
   128
 71
   -65
 72
   -66
 73
    67
  0
VERTEX
  5
843
330
76F
100
AcDbEntity
  8
0
100
AcDbFaceRecord
 10
0.0
 20
0.0
 30
0.0
 70
   128
 71
   -67
 72
    66
 73
    68
  0
VERTEX
  5
844
330
76F
100
AcDbEntity
  8
0
100
AcDbFaceRecord
 10
0.0
 20
0.0
 30
0.0
 70
   128
 71
   -69
 72
   -70
 73
    71
  0
VERTEX
  5
845
330
76F
100
AcDbEntity
  8
0
100
AcDbFaceRecord
 10
0.0
 20
0.0
 30
0.0
 70
   128
 71
   -70
 72
   -69
 73
    72
  0
VERTEX
  5
846
330
76F
100
AcDbEntity
  8
0
100
AcDbFaceRecord
 10
0.0
 20
0.0
 30
0.0
 70
   128
 71
   -72
 72
   -69
 73
    73
  0
VERTEX
  5
847
330
76F
100
AcDbEntity
  8
0
100
AcDbFaceRecord
 10
0.0
 20
0.0
 30
0.0
 70
   128
 71
   -73
 72
    69
 73
   -74
  0
VERTEX
  5
848
330
76F
100
AcDbEntity
  8
0
100
AcDbFaceRecord
 10
0.0
 20
0.0
 30
0.0
 70
   128
 71
   -73
 72
   -74
 73
    75
  0
VERTEX
  5
849
330
76F
100
AcDbEntity
  8
0
100
AcDbFaceRecord
 10
0.0
 20
0.0
 30
0.0
 70
   128
 71
   -75
 72
    74
 73
   -76
  0
VERTEX
  5
84A
330
76F
100
AcDbEntity
  8
0
100
AcDbFaceRecord
 10
0.0
 20
0.0
 30
0.0
 70
   128
 71
   -75
 72
   -76
 73
    77
  0
VERTEX
  5
84B
330
76F
100
AcDbEntity
  8
0
100
AcDbFaceRecord
 10
0.0
 20
0.0
 30
0.0
 70
   128
 71
   -77
 72
    76
 73
   -78
  0
VERTEX
  5
84C
330
76F
100
AcDbEntity
  8
0
100
AcDbFaceRecord
 10
0.0
 20
0.0
 30
0.0
 70
   128
 71
   -77
 72
   -78
 73
    79
  0
VERTEX
  5
84D
330
76F
100
AcDbEntity
  8
0
100
AcDbFaceRecord
 10
0.0
 20
0.0
 30
0.0
 70
   128
 71
   -79
 72
    78
 73
    80
  0
VERTEX
  5
84E
330
76F
100
AcDbEntity
  8
0
100
AcDbFaceRecord
 10
0.0
 20
0.0
 30
0.0
 70
   128
 71
   -81
 72
   -82
 73
    83
  0
VERTEX
  5
84F
330
76F
100
AcDbEntity
  8
0
100
AcDbFaceRecord
 10
0.0
 20
0.0
 30
0.0
 70
   128
 71
   -82
 72
   -81
 73
    84
  0
VERTEX
  5
850
330
76F
100
AcDbEntity
  8
0
100
AcDbFaceRecord
 10
0.0
 20
0.0
 30
0.0
 70
   128
 71
   -84
 72
   -81
 73
    85
  0
VERTEX
  5
851
330
76F
100
AcDbEntity
  8
0
100
AcDbFaceRecord
 10
0.0
 20
0.0
 30
0.0
 70
   128
 71
   -85
 72
    81
 73
   -86
  0
VERTEX
  5
852
330
76F
100
AcDbEntity
  8
0
100
AcDbFaceRecord
 10
0.0
 20
0.0
 30
0.0
 70
   128
 71
   -85
 72
   -86
 73
    87
  0
VERTEX
  5
853
330
76F
100
AcDbEntity
  8
0
100
AcDbFaceRecord
 10
0.0
 20
0.0
 30
0.0
 70
   128
 71
   -87
 72
    86
 73
   -88
  0
VERTEX
  5
854
330
76F
100
AcDbEntity
  8
0
100
AcDbFaceRecord
 10
0.0
 20
0.0
 30
0.0
 70
   128
 71
   -87
 72
   -88
 73
    89
  0
VERTEX
  5
855
330
76F
100
AcDbEntity
  8
0
100
AcDbFaceRecord
 10
0.0
 20
0.0
 30
0.0
 70
   128
 71
   -89
 72
    88
 73
   -90
  0
VERTEX
  5
856
330
76F
100
AcDbEntity
  8
0
100
AcDbFaceRecord
 10
0.0
 20
0.0
 30
0.0
 70
   128
 71
   -89
 72
   -90
 73
    91
  0
VERTEX
  5
857
330
76F
100
AcDbEntity
  8
0
100
AcDbFaceRecord
 10
0.0
 20
0.0
 30
0.0
 70
   128
 71
   -91
 72
    90
 73
    92
  0
VERTEX
  5
858
330
76F
100
AcDbEntity
  8
0
100
AcDbFaceRecord
 10
0.0
 20
0.0
 30
0.0
 70
   128
 71
   -93
 72
   -94
 73
    95
  0
VERTEX
  5
859
330
76F
100
AcDbEntity
  8
0
100
AcDbFaceRecord
 10
0.0
 20
0.0
 30
0.0
 70
   128
 71
   -94
 72
   -93
 73
    96
  0
VERTEX
  5
85A
330
76F
100
AcDbEntity
  8
0
100
AcDbFaceRecord
 10
0.0
 20
0.0
 30
0.0
 70
   128
 71
   -96
 72
   -93
 73
    97
  0
VERTEX
  5
85B
330
76F
100
AcDbEntity
  8
0
100
AcDbFaceRecord
 10
0.0
 20
0.0
 30
0.0
 70
   128
 71
   -97
 72
    93
 73
   -98
  0
VERTEX
  5
85C
330
76F
100
AcDbEntity
  8
0
100
AcDbFaceRecord
 10
0.0
 20
0.0
 30
0.0
 70
   128
 71
   -97
 72
   -98
 73
    99
  0
VERTEX
  5
85D
330
76F
100
AcDbEntity
  8
0
100
AcDbFaceRecord
 10
0.0
 20
0.0
 30
0.0
 70
   128
 71
   -99
 72
    98
 73
  -100
  0
VERTEX
  5
85E
330
76F
100
AcDbEntity
  8
0
100
AcDbFaceRecord
 10
0.0
 20
0.0
 30
0.0
 70
   128
 71
   -99
 72
  -100
 73
   101
  0
VERTEX
  5
85F
330
76F
100
AcDbEntity
  8
0
100
AcDbFaceRecord
 10
0.0
 20
0.0
 30
0.0
 70
   128
 71
  -101
 72
   100
 73
  -102
  0
VERTEX
  5
860
330
76F
100
AcDbEntity
  8
0
100
AcDbFaceRecord
 10
0.0
 20
0.0
 30
0.0
 70
   128
 71
  -101
 72
  -102
 73
   103
  0
VERTEX
  5
861
330
76F
100
AcDbEntity
  8
0
100
AcDbFaceRecord
 10
0.0
 20
0.0
 30
0.0
 70
   128
 71
  -103
 72
   102
 73
   104
  0
VERTEX
  5
862
330
76F
100
AcDbEntity
  8
0
100
AcDbFaceRecord
 10
0.0
 20
0.0
 30
0.0
 70
   128
 71
   -20
 72
  -105
 73
   106
  0
VERTEX
  5
863
330
76F
100
AcDbEntity
  8
0
100
AcDbFaceRecord
 10
0.0
 20
0.0
 30
0.0
 70
   128
 71
  -105
 72
   -20
 73
    34
  0
VERTEX
  5
864
330
76F
100
AcDbEntity
  8
0
100
AcDbFaceRecord
 10
0.0
 20
0.0
 30
0.0
 70
   128
 71
  -106
 72
   105
 73
  -107
  0
VERTEX
  5
865
330
76F
100
AcDbEntity
  8
0
100
AcDbFaceRecord
 10
0.0
 20
0.0
 30
0.0
 70
   128
 71
  -106
 72
   107
 73
  -108
  0
VERTEX
  5
866
330
76F
100
AcDbEntity
  8
0
100
AcDbFaceRecord
 10
0.0
 20
0.0
 30
0.0
 70
   128
 71
  -106
 72
  -108
 73
  -109
  0
VERTEX
  5
867
330
76F
100
AcDbEntity
  8
0
100
AcDbFaceRecord
 10
0.0
 20
0.0
 30
0.0
 70
   128
 71
  -109
 72
   108
 73
   -47
  0
VERTEX
  5
868
330
76F
100
AcDbEntity
  8
0
100
AcDbFaceRecord
 10
0.0
 20
0.0
 30
0.0
 70
   128
 71
  -109
 72
   -47
 73
    46
  0
VERTEX
  5
869
330
76F
100
AcDbEntity
  8
0
100
AcDbFaceRecord
 10
0.0
 20
0.0
 30
0.0
 70
   128
 71
  -106
 72
   109
 73
  -110
  0
VERTEX
  5
86A
330
76F
100
AcDbEntity
  8
0
100
AcDbFaceRecord
 10
0.0
 20
0.0
 30
0.0
 70
   128
 71
  -106
 72
   110
 73
  -111
  0
VERTEX
  5
86B
330
76F
100
AcDbEntity
  8
0
100
AcDbFaceRecord
 10
0.0
 20
0.0
 30
0.0
 70
   128
 71
  -106
 72
   111
 73
   -59
  0
VERTEX
  5
86C
330
76F
100
AcDbEntity
  8
0
100
AcDbFaceRecord
 10
0.0
 20
0.0
 30
0.0
 70
   128
 71
  -106
 72
   -59
 73
  -112
  0
VERTEX
  5
86D
330
76F
100
AcDbEntity
  8
0
100
AcDbFaceRecord
 10
0.0
 20
0.0
 30
0.0
 70
   128
 71
  -112
 72
   -59
 73
    58
  0
VERTEX
  5
86E
330
76F
100
AcDbEntity
  8
0
100
AcDbFaceRecord
 10
0.0
 20
0.0
 30
0.0
 70
   128
 71
  -106
 72
   112
 73
  -113
  0
VERTEX
  5
86F
330
76F
100
AcDbEntity
  8
0
100
AcDbFaceRecord
 10
0.0
 20
0.0
 30
0.0
 70
   128
 71
  -106
 72
   113
 73
  -114
  0
VERTEX
  5
870
330
76F
100
AcDbEntity
  8
0
100
AcDbFaceRecord
 10
0.0
 20
0.0
 30
0.0
 70
   128
 71
  -106
 72
   114
 73
   -71
  0
VERTEX
  5
871
330
76F
100
AcDbEntity
  8
0
100
AcDbFaceRecord
 10
0.0
 20
0.0
 30
0.0
 70
   128
 71
  -106
 72
   -71
 73
   -70
  0
VERTEX
  5
872
330
76F
100
AcDbEntity
  8
0
100
AcDbFaceRecord
 10
0.0
 20
0.0
 30
0.0
 70
   128
 71
  -106
 72
    70
 73
  -115
  0
VERTEX
  5
873
330
76F
100
AcDbEntity
  8
0
100
AcDbFaceRecord
 10
0.0
 20
0.0
 30
0.0
 70
   128
 71
  -106
 72
   115
 73
  -116
  0
VERTEX
  5
874
330
76F
100
AcDbEntity
  8
0
100
AcDbFaceRecord
 10
0.0
 20
0.0
 30
0.0
 70
   128
 71
  -106
 72
  -116
 73
  -117
  0
VERTEX
  5
875
330
76F
100
AcDbEntity
  8
0
100
AcDbFaceRecord
 10
0.0
 20
0.0
 30
0.0
 70
   128
 71
  -106
 72
  -117
 73
  -118
  0
VERTEX
  5
876
330
76F
100
AcDbEntity
  8
0
100
AcDbFaceRecord
 10
0.0
 20
0.0
 30
0.0
 70
   128
 71
  -106
 72
  -118
 73
   119
  0
VERTEX
  5
877
330
76F
100
AcDbEntity
  8
0
100
AcDbFaceRecord
 10
0.0
 20
0.0
 30
0.0
 70
   128
 71
  -117
 72
   116
 73
  -120
  0
VERTEX
  5
878
330
76F
100
AcDbEntity
  8
0
100
AcDbFaceRecord
 10
0.0
 20
0.0
 30
0.0
 70
   128
 71
  -117
 72
   120
 73
   -83
  0
VERTEX
  5
879
330
76F
100
AcDbEntity
  8
0
100
AcDbFaceRecord
 10
0.0
 20
0.0
 30
0.0
 70
   128
 71
  -117
 72
   -83
 73
    82
  0
VERTEX
  5
87A
330
76F
100
AcDbEntity
  8
0
100
AcDbFaceRecord
 10
0.0
 20
0.0
 30
0.0
 70
   128
 71
  -118
 72
   117
 73
  -121
  0
VERTEX
  5
87B
330
76F
100
AcDbEntity
  8
0
100
AcDbFaceRecord
 10
0.0
 20
0.0
 30
0.0
 70
   128
 71
  -118
 72
   121
 73
  -122
  0
VERTEX
  5
87C
330
76F
100
AcDbEntity
  8
0
100
AcDbFaceRecord
 10
0.0
 20
0.0
 30
0.0
 70
   128
 71
  -118
 72
   122
 73
   -95
  0
VERTEX
  5
87D
330
76F
100
AcDbEntity
  8
0
100
AcDbFaceRecord
 10
0.0
 20
0.0
 30
0.0
 70
   128
 71
  -118
 72
   -95
 73
    94
  0
VERTEX
  5
87E
330
76F
100
AcDbEntity
  8
0
100
AcDbFaceRecord
 10
0.0
 20
0.0
 30
0.0
 70
   128
 71
  -119
 72
   118
 73
  -123
  0
VERTEX
  5
87F
330
76F
100
AcDbEntity
  8
0
100
AcDbFaceRecord
 10
0.0
 20
0.0
 30
0.0
 70
   128
 71
  -119
 72
   123
 73
  -124
  0
VERTEX
  5
880
330
76F
100
AcDbEntity
  8
0
100
AcDbFaceRecord
 10
0.0
 20
0.0
 30
0.0
 70
   128
 71
  -119
 72
   124
 73
  -125
  0
VERTEX
  5
881
330
76F
100
AcDbEntity
  8
0
100
AcDbFaceRecord
 10
0.0
 20
0.0
 30
0.0
 70
   128
 71
  -119
 72
   125
 73
  -126
  0
VERTEX
  5
882
330
76F
100
AcDbEntity
  8
0
100
AcDbFaceRecord
 10
0.0
 20
0.0
 30
0.0
 70
   128
 71
  -119
 72
   126
 73
  -127
  0
VERTEX
  5
883
330
76F
100
AcDbEntity
  8
0
100
AcDbFaceRecord
 10
0.0
 20
0.0
 30
0.0
 70
   128
 71
  -119
 72
  -127
 73
   128
  0
VERTEX
  5
884
330
76F
100
AcDbEntity
  8
0
100
AcDbFaceRecord
 10
0.0
 20
0.0
 30
0.0
 70
   128
 71
  -128
 72
   127
 73
  -129
  0
VERTEX
  5
885
330
76F
100
AcDbEntity
  8
0
100
AcDbFaceRecord
 10
0.0
 20
0.0
 30
0.0
 70
   128
 71
  -128
 72
   129
 73
   130
  0
VERTEX
  5
886
330
76F
100
AcDbEntity
  8
0
100
AcDbFaceRecord
 10
0.0
 20
0.0
 30
0.0
 70
   128
 71
  -131
 72
   -25
 73
    23
  0
VERTEX
  5
887
330
76F
100
AcDbEntity
  8
0
100
AcDbFaceRecord
 10
0.0
 20
0.0
 30
0.0
 70
   128
 71
   -25
 72
  -131
 73
   132
  0
VERTEX
  5
888
330
76F
100
AcDbEntity
  8
0
100
AcDbFaceRecord
 10
0.0
 20
0.0
 30
0.0
 70
   128
 71
  -132
 72
  -131
 73
   133
  0
VERTEX
  5
889
330
76F
100
AcDbEntity
  8
0
100
AcDbFaceRecord
 10
0.0
 20
0.0
 30
0.0
 70
   128
 71
  -133
 72
   131
 73
  -134
  0
VERTEX
  5
88A
330
76F
100
AcDbEntity
  8
0
100
AcDbFaceRecord
 10
0.0
 20
0.0
 30
0.0
 70
   128
 71
  -133
 72
  -134
 73
   135
  0
VERTEX
  5
88B
330
76F
100
AcDbEntity
  8
0
100
AcDbFaceRecord
 10
0.0
 20
0.0
 30
0.0
 70
   128
 71
  -135
 72
   134
 73
  -136
  0
VERTEX
  5
88C
330
76F
100
AcDbEntity
  8
0
100
AcDbFaceRecord
 10
0.0
 20
0.0
 30
0.0
 70
   128
 71
  -135
 72
  -136
 73
   137
  0
VERTEX
  5
88D
330
76F
100
AcDbEntity
  8
0
100
AcDbFaceRecord
 10
0.0
 20
0.0
 30
0.0
 70
   128
 71
  -137
 72
   136
 73
  -138
  0
VERTEX
  5
88E
330
76F
100
AcDbEntity
  8
0
100
AcDbFaceRecord
 10
0.0
 20
0.0
 30
0.0
 70
   128
 71
  -137
 72
  -138
 73
   139
  0
VERTEX
  5
88F
330
76F
100
AcDbEntity
  8
0
100
AcDbFaceRecord
 10
0.0
 20
0.0
 30
0.0
 70
   128
 71
  -139
 72
   138
 73
   140
  0
VERTEX
  5
890
330
76F
100
AcDbEntity
  8
0
100
AcDbFaceRecord
 10
0.0
 20
0.0
 30
0.0
 70
   128
 71
  -141
 72
   -29
 73
    28
  0
VERTEX
  5
891
330
76F
100
AcDbEntity
  8
0
100
AcDbFaceRecord
 10
0.0
 20
0.0
 30
0.0
 70
   128
 71
   -29
 72
  -141
 73
   142
  0
VERTEX
  5
892
330
76F
100
AcDbEntity
  8
0
100
AcDbFaceRecord
 10
0.0
 20
0.0
 30
0.0
 70
   128
 71
  -142
 72
  -141
 73
   143
  0
VERTEX
  5
893
330
76F
100
AcDbEntity
  8
0
100
AcDbFaceRecord
 10
0.0
 20
0.0
 30
0.0
 70
   128
 71
  -143
 72
   141
 73
  -144
  0
VERTEX
  5
894
330
76F
100
AcDbEntity
  8
0
100
AcDbFaceRecord
 10
0.0
 20
0.0
 30
0.0
 70
   128
 71
  -143
 72
  -144
 73
   145
  0
VERTEX
  5
895
330
76F
100
AcDbEntity
  8
0
100
AcDbFaceRecord
 10
0.0
 20
0.0
 30
0.0
 70
   128
 71
  -145
 72
   144
 73
  -146
  0
VERTEX
  5
896
330
76F
100
AcDbEntity
  8
0
100
AcDbFaceRecord
 10
0.0
 20
0.0
 30
0.0
 70
   128
 71
  -145
 72
  -146
 73
   147
  0
VERTEX
  5
897
330
76F
100
AcDbEntity
  8
0
100
AcDbFaceRecord
 10
0.0
 20
0.0
 30
0.0
 70
   128
 71
  -147
 72
   146
 73
  -148
  0
VERTEX
  5
898
330
76F
100
AcDbEntity
  8
0
100
AcDbFaceRecord
 10
0.0
 20
0.0
 30
0.0
 70
   128
 71
  -147
 72
  -148
 73
   149
  0
VERTEX
  5
899
330
76F
100
AcDbEntity
  8
0
100
AcDbFaceRecord
 10
0.0
 20
0.0
 30
0.0
 70
   128
 71
  -149
 72
   148
 73
   150
  0
SEQEND
  5
89A
330
76F
100
AcDbEntity
  8
0
  0
ENDSEC
  0
SECTION
  2
OBJECTS
  0
DICTIONARY
  5
C
330
0
100
AcDbDictionary
  3
ACAD_GROUP
350
D
  3
ACAD_LAYOUT
350
1A
  3
ACAD_MATERIAL
350
43
  3
ACAD_MLEADERSTYLE
350
8BD
  3
ACAD_MLINESTYLE
350
17
  3
ACAD_PLOTSETTINGS
350
19
  3
ACAD_SCALELIST
350
47
  3
ACAD_VISUALSTYLE
350
2A
  3
ACDBHEADERROUNDTRIPXREC
350
89B
  3
ACDBVARIABLEDICTIONARY
350
8BB
  0
DICTIONARY
  5
8C2
330
8
100
AcDbDictionary
280
     1
  3
ACAD_XREC_ROUNDTRIP
360
8C3
  0
DICTIONARY
  5
D
102
{ACAD_REACTORS
330
C
102
}
330
C
100
AcDbDictionary
  0
DICTIONARY
  5
1A
102
{ACAD_REACTORS
330
C
102
}
330
C
100
AcDbDictionary
  0
DICTIONARY
  5
43
102
{ACAD_REACTORS
330
C
102
}
330
C
100
AcDbDictionary
  3
BYBLOCK
350
45
  3
BYLAYER
350
44
  3
GLOBAL
350
46
  0
DICTIONARY
  5
8BD
102
{ACAD_REACTORS
330
C
102
}
330
C
100
AcDbDictionary
  0
DICTIONARY
  5
17
102
{ACAD_REACTORS
330
C
102
}
330
C
100
AcDbDictionary
  3
STANDARD
350
18
  0
DICTIONARY
  5
19
102
{ACAD_REACTORS
330
C
102
}
330
C
100
AcDbDictionary
  0
DICTIONARY
  5
47
102
{ACAD_REACTORS
330
C
102
}
330
C
100
AcDbDictionary
  3
A0
350
48
  3
A1
350
49
  3
A2
350
4A
  3
A3
350
4B
  3
A4
350
4C
  3
A5
350
4D
  3
A6
350
4E
  3
A7
350
4F
  3
A8
350
50
  3
A9
350
51
  3
B0
350
52
  3
B1
350
53
  3
B2
350
54
  3
B3
350
55
  3
B4
350
56
  3
B5
350
57
  3
B6
350
58
  3
B7
350
59
  3
B8
350
5A
  3
B9
350
5B
  3
C0
350
5C
  3
C1
350
5D
  3
C2
350
5E
  3
C3
350
5F
  3
C4
350
60
  3
C5
350
61
  3
C6
350
62
  3
C7
350
63
  3
C8
350
64
  3
C9
350
65
  3
D0
350
66
  3
D1
350
67
  3
D2
350
68
  0
DICTIONARY
  5
2A
102
{ACAD_REACTORS
330
C
102
}
330
C
100
AcDbDictionary
  3
2DWIREFRAME
350
2F
  3
BASIC
350
32
  3
BRIGHTEN
350
36
  3
COLORCHANGE
350
3A
  3
CONCEPTUAL
350
34
  3
DIM
350
35
  3
EDGECOLOROFF
350
3D
  3
FACEPATTERN
350
39
  3
FLAT
350
2B
  3
FLATWITHEDGES
350
2C
  3
GOURAUD
350
2D
  3
GOURAUDWITHEDGES
350
2E
  3
HIDDEN
350
31
  3
JITTEROFF
350
3B
  3
LINEPATTERN
350
38
  3
OVERHANGOFF
350
3C
  3
REALISTIC
350
33
  3
SHADED
350
42
  3
SHADED_WITH_EDGES
350
41
  3
SHADES_OF_GRAY
350
3E
  3
SKETCHY
350
3F
  3
THICKEN
350
37
  3
WIREFRAME
350
30
  3
X-RAY
350
40
  0
DICTIONARY
  5
89B
102
{ACAD_REACTORS
330
C
102
}
330
C
100
AcDbDictionary
  3
CEPSNTYPE
350
8A4
  3
DIMSTYLEDATA
350
8BA
  3
FINGERPRINTGUID
350
8A5
  3
HYPERLINKBASE
350
89E
  3
INSUNITS
350
8A3
  3
LAYOUTDICT
350
8A0
  3
LWETCUNION
350
8A2
  3
PLOTSETDICT
350
8A1
  3
PSVPSCALE
350
8A7
  3
PUCSBASE
350
8AA
  3
PUCSORGBACK
350
8B0
  3
PUCSORGBOTTOM
350
8AC
  3
PUCSORGFRONT
350
8AF
  3
PUCSORGLEFT
350
8AD
  3
PUCSORGRIGHT
350
8AE
  3
PUCSORGTOP
350
8AB
  3
PUCSORTHOREF
350
8A8
  3
PUCSORTHOVIEW
350
8A9
  3
STYLESHEET
350
89F
  3
TSTACKALIGN
350
89C
  3
TSTACKSIZE
350
89D
  3
UCSBASE
350
8B3
  3
UCSORGBACK
350
8B9
  3
UCSORGBOTTOM
350
8B5
  3
UCSORGFRONT
350
8B8
  3
UCSORGLEFT
350
8B6
  3
UCSORGRIGHT
350
8B7
  3
UCSORGTOP
350
8B4
  3
UCSORTHOREF
350
8B1
  3
UCSORTHOVIEW
350
8B2
  3
VERSIONGUID
350
8A6
  0
DICTIONARY
  5
8BB
102
{ACAD_REACTORS
330
C
102
}
330
C
100
AcDbDictionary
  3
CANNOSCALE
350
8C4
  3
DIMASSOC
350
8C0
  3
HIDETEXT
350
8C1
  3
MSLTSCALE
350
8C5
  0
XRECORD
  5
8C3
102
{ACAD_REACTORS
330
8C2
102
}
330
8C2
100
AcDbXrecord
102
VTR_0.000_0.000_1.000_1.000_GRIDDISPLAY
 70
     3
102
VTR_0.000_0.000_1.000_1.000_GRIDMAJOR
 70
     5
102
VTR_0.000_0.000_1.000_1.000_DEFAULTLIGHTING
280
     1
102
VTR_0.000_0.000_1.000_1.000_DEFAULTLIGHTINGTYPE
 70
     1
102
VTR_0.000_0.000_1.000_1.000_BRIGHTNESS
141
0.0
102
VTR_0.000_0.000_1.000_1.000_CONTRAST
142
0.0
  0
MATERIAL
  5
45
102
{ACAD_REACTORS
330
43
102
}
102
{ACAD_XDICTIONARY
360
8C8
102
}
330
43
100
AcDbMaterial
  1
BYBLOCK
  0
MATERIAL
  5
44
102
{ACAD_REACTORS
330
43
102
}
102
{ACAD_XDICTIONARY
360
8C6
102
}
330
43
100
AcDbMaterial
  1
BYLAYER
  0
MATERIAL
  5
46
102
{ACAD_REACTORS
330
43
102
}
102
{ACAD_XDICTIONARY
360
8CA
102
}
330
43
100
AcDbMaterial
  1
GLOBAL
  0
MLINESTYLE
  5
18
102
{ACAD_REACTORS
330
17
102
}
330
17
100
AcDbMlineStyle
  2
Standard
 70
     0
  3

 62
   256
 51
90.0
 52
90.0
 71
     2
 49
0.5
 62
   256
  6
BYLAYER
 49
-0.5
 62
   256
  6
BYLAYER
  0
ACAD_PROXY_OBJECT
  5
48
102
{ACAD_REACTORS
330
47
102
}
330
47
100
AcDbProxyObject
 90
      499
 91
      503
 93
       41
310
903313A31580
  0
ACAD_PROXY_OBJECT
  5
49
102
{ACAD_REACTORS
330
47
102
}
330
47
100
AcDbProxyObject
 90
      499
 91
      503
 93
      105
310
903313A324000000000000004000
  0
ACAD_PROXY_OBJECT
  5
4A
102
{ACAD_REACTORS
330
47
102
}
330
47
100
AcDbProxyObject
 90
      499
 91
      503
 93
      105
310
903313A344000000000000104000
  0
ACAD_PROXY_OBJECT
  5
4B
102
{ACAD_REACTORS
330
47
102
}
330
47
100
AcDbProxyObject
 90
      499
 91
      503
 93
      105
310
903313A354000000000000144000
  0
ACAD_PROXY_OBJECT
  5
4C
102
{ACAD_REACTORS
330
47
102
}
330
47
100
AcDbProxyObject
 90
      499
 91
      503
 93
      105
310
903313A384000000000000204000
  0
ACAD_PROXY_OBJECT
  5
4D
102
{ACAD_REACTORS
330
47
102
}
330
47
100
AcDbProxyObject
 90
      499
 91
      503
 93
      113
310
904313A31304000000000000244000
  0
ACAD_PROXY_OBJECT
  5
4E
102
{ACAD_REACTORS
330
47
102
}
330
47
100
AcDbProxyObject
 90
      499
 91
      503
 93
      113
310
904313A31364000000000000304000
  0
ACAD_PROXY_OBJECT
  5
4F
102
{ACAD_REACTORS
330
47
102
}
330
47
100
AcDbProxyObject
 90
      499
 91
      503
 93
      113
310
904313A32304000000000000344000
  0
ACAD_PROXY_OBJECT
  5
50
102
{ACAD_REACTORS
330
47
102
}
330
47
100
AcDbProxyObject
 90
      499
 91
      503
 93
      113
310
904313A333040000000000003E4000
  0
ACAD_PROXY_OBJECT
  5
51
102
{ACAD_REACTORS
330
47
102
}
330
47
100
AcDbProxyObject
 90
      499
 91
      503
 93
      113
310
904313A34304000000000000444000
  0
ACAD_PROXY_OBJECT
  5
52
102
{ACAD_REACTORS
330
47
102
}
330
47
100
AcDbProxyObject
 90
      499
 91
      503
 93
      113
310
904313A35304000000000000494000
  0
ACAD_PROXY_OBJECT
  5
53
102
{ACAD_REACTORS
330
47
102
}
330
47
100
AcDbProxyObject
 90
      499
 91
      503
 93
      121
310
905313A3130304000000000000594000
  0
ACAD_PROXY_OBJECT
  5
54
102
{ACAD_REACTORS
330
47
102
}
330
47
100
AcDbProxyObject
 90
      499
 91
      503
 93
      105
310
903323A310000000000000010100
  0
ACAD_PROXY_OBJECT
  5
55
102
{ACAD_REACTORS
330
47
102
}
330
47
100
AcDbProxyObject
 90
      499
 91
      503
 93
      105
310
903343A310000000000000410100
  0
ACAD_PROXY_OBJECT
  5
56
102
{ACAD_REACTORS
330
47
102
}
330
47
100
AcDbProxyObject
 90
      499
 91
      503
 93
      105
310
903383A310000000000000810100
  0
ACAD_PROXY_OBJECT
  5
57
102
{ACAD_REACTORS
330
47
102
}
330
47
100
AcDbProxyObject
 90
      499
 91
      503
 93
      113
310
90431303A310000000000000910100
  0
ACAD_PROXY_OBJECT
  5
58
102
{ACAD_REACTORS
330
47
102
}
330
47
100
AcDbProxyObject
 90
      499
 91
      503
 93
      121
310
9053130303A310000000000001650100
  0
ACAD_PROXY_OBJECT
  5
59
102
{ACAD_REACTORS
330
47
102
}
330
47
100
AcDbProxyObject
 90
      499
 91
      503
 93
      257
310
90E312F31323822203D2031272D3022000000000000200FC000000000000284000
  0
ACAD_PROXY_OBJECT
  5
5A
102
{ACAD_REACTORS
330
47
102
}
330
47
100
AcDbProxyObject
 90
      499
 91
      503
 93
      249
310
90D312F363422203D2031272D3022000000000000240FC000000000000284000
  0
ACAD_PROXY_OBJECT
  5
5B
102
{ACAD_REACTORS
330
47
102
}
330
47
100
AcDbProxyObject
 90
      499
 91
      503
 93
      249
310
90D312F333222203D2031272D3022000000000000280FC000000000000284000
  0
ACAD_PROXY_OBJECT
  5
5C
102
{ACAD_REACTORS
330
47
102
}
330
47
100
AcDbProxyObject
 90
      499
 91
      503
 93
      249
310
90D312F313622203D2031272D30220000000000002C0FC000000000000284000
  0
ACAD_PROXY_OBJECT
  5
5D
102
{ACAD_REACTORS
330
47
102
}
330
47
100
AcDbProxyObject
 90
      499
 91
      503
 93
      249
310
90D332F333222203D2031272D30220000000000002E0FC000000000000284000
  0
ACAD_PROXY_OBJECT
  5
5E
102
{ACAD_REACTORS
330
47
102
}
330
47
100
AcDbProxyObject
 90
      499
 91
      503
 93
      241
310
90C312F3822203D2031272D3022000000000000300FC000000000000284000
  0
ACAD_PROXY_OBJECT
  5
5F
102
{ACAD_REACTORS
330
47
102
}
330
47
100
AcDbProxyObject
 90
      499
 91
      503
 93
      249
310
90D332F313622203D2031272D3022000000000000320FC000000000000284000
  0
ACAD_PROXY_OBJECT
  5
60
102
{ACAD_REACTORS
330
47
102
}
330
47
100
AcDbProxyObject
 90
      499
 91
      503
 93
      241
310
90C312F3422203D2031272D3022000000000000340FC000000000000284000
  0
ACAD_PROXY_OBJECT
  5
61
102
{ACAD_REACTORS
330
47
102
}
330
47
100
AcDbProxyObject
 90
      499
 91
      503
 93
      241
310
90C332F3822203D2031272D3022000000000000360FC000000000000284000
  0
ACAD_PROXY_OBJECT
  5
62
102
{ACAD_REACTORS
330
47
102
}
330
47
100
AcDbProxyObject
 90
      499
 91
      503
 93
      241
310
90C312F3222203D2031272D3022000000000000380FC000000000000284000
  0
ACAD_PROXY_OBJECT
  5
63
102
{ACAD_REACTORS
330
47
102
}
330
47
100
AcDbProxyObject
 90
      499
 91
      503
 93
      241
310
90C332F3422203D2031272D30220000000000003A0FC000000000000284000
  0
ACAD_PROXY_OBJECT
  5
64
102
{ACAD_REACTORS
330
47
102
}
330
47
100
AcDbProxyObject
 90
      499
 91
      503
 93
      161
310
90A3122203D2031272D30224000000000000284000
  0
ACAD_PROXY_OBJECT
  5
65
102
{ACAD_REACTORS
330
47
102
}
330
47
100
AcDbProxyObject
 90
      499
 91
      503
 93
      257
310
90E312D312F3222203D2031272D30220000000000003E0FC000000000000284000
  0
ACAD_PROXY_OBJECT
  5
66
102
{ACAD_REACTORS
330
47
102
}
330
47
100
AcDbProxyObject
 90
      499
 91
      503
 93
      225
310
90A3322203D2031272D302200000000000002100000000000000284000
  0
ACAD_PROXY_OBJECT
  5
67
102
{ACAD_REACTORS
330
47
102
}
330
47
100
AcDbProxyObject
 90
      499
 91
      503
 93
      225
310
90A3622203D2031272D302200000000000006100000000000000284000
  0
ACAD_PROXY_OBJECT
  5
68
102
{ACAD_REACTORS
330
47
102
}
330
47
100
AcDbProxyObject
 90
      499
 91
      503
 93
      249
310
90D31272D3022203D2031272D30220000000000000A100000000000000284000
  0
ACAD_PROXY_OBJECT
  5
2F
102
{ACAD_REACTORS
330
2A
102
}
330
2A
100
AcDbProxyObject
 90
      499
 91
      501
 93
      436
310
42CC9915DA5C99599C985B595049028333333333333E33F0000000000000F90107901411070040501600405405064090741402480A0340
1001
ACAD
1000
AcDbSavedByObjectVersion
1070
     0
  0
ACAD_PROXY_OBJECT
  5
32
102
{ACAD_REACTORS
330
2A
102
}
330
2A
100
AcDbProxyObject
 90
      499
 91
      501
 93
      388
310
4150985CDA58D07406404333333333333E33F0000000000000F90107A41107004050150841D405064090741402480A0350
1001
ACAD
1000
AcDbSavedByObjectVersion
1070
     0
  0
ACAD_PROXY_OBJECT
  5
36
102
{ACAD_REACTORS
330
2A
102
}
330
2A
100
AcDbProxyObject
 90
      499
 91
      501
 93
      428
310
42109C9A59DA1D195B90C409028333333333333E33F0000000000000F9010790141107004050150841D405064090741402480A029950
1001
ACAD
1000
AcDbSavedByObjectVersion
1070
     0
  0
ACAD_PROXY_OBJECT
  5
3A
102
{ACAD_REACTORS
330
2A
102
}
330
2A
100
AcDbProxyObject
 90
      499
 91
      501
 93
      452
310
42D0DBDB1BDC90DA185B99D95104090240C333333333333E33F0000000000000F90108901411070040501508421405064090741402480A0350
1001
ACAD
1000
AcDbSavedByObjectVersion
1070
     0
  0
ACAD_PROXY_OBJECT
  5
34
102
{ACAD_REACTORS
330
2A
102
}
330
2A
100
AcDbProxyObject
 90
      499
 91
      501
 93
      500
310
4290DBDB98D95C1D1D585B10940D028333333333333E33F0000000000000F90107902409070040501000000000018199010841D405064090740C02480A0340
1001
ACAD
1000
AcDbSavedByObjectVersion
1070
     0
  0
ACAD_PROXY_OBJECT
  5
35
102
{ACAD_REACTORS
330
2A
102
}
330
2A
100
AcDbProxyObject
 90
      499
 91
      501
 93
      412
310
40D11A5B50B409028333333333333E33F0000000000000F9010790141107004050150841D405064090741402480A02677FFFFFD0
1001
ACAD
1000
AcDbSavedByObjectVersion
1070
     0
  0
ACAD_PROXY_OBJECT
  5
3D
102
{ACAD_REACTORS
330
2A
102
}
330
2A
100
AcDbProxyObject
 90
      499
 91
      501
 93
      452
310
43115919D950DBDB1BDC93D999916409028333333333333E33F0000000000000F9010790141107004050150841D405064090741402480A0350
1001
ACAD
1000
AcDbSavedByObjectVersion
1070
     0
  0
ACAD_PROXY_OBJECT
  5
39
102
{ACAD_REACTORS
330
2A
102
}
330
2A
100
AcDbProxyObject
 90
      499
 91
      501
 93
      444
310
42D19858D95C185D1D195C9B90F409028333333333333E33F0000000000000F9010790141107004050150841D405064090741402480A0350
1001
ACAD
1000
AcDbSavedByObjectVersion
1070
     0
  0
ACAD_PROXY_OBJECT
  5
2B
102
{ACAD_REACTORS
330
2A
102
}
330
2A
100
AcDbProxyObject
 90
      499
 91
      501
 93
      380
310
41119B185D240901404333333333333E33F0000000000000F9010740A907004050150841D405064090741402480A1B50
1001
ACAD
1000
AcDbSavedByObjectVersion
1070
     0
  0
ACAD_PROXY_OBJECT
  5
2C
102
{ACAD_REACTORS
330
2A
102
}
330
2A
100
AcDbProxyObject
 90
      499
 91
      501
 93
      468
310
43519B185D15DA5D1A115919D95CD0140901404333333333333E33F0000000000000F90107409019070040501600405405064090741402480A1B50
1001
ACAD
1000
AcDbSavedByObjectVersion
1070
     0
  0
ACAD_PROXY_OBJECT
  5
2D
102
{ACAD_REACTORS
330
2A
102
}
330
2A
100
AcDbProxyObject
 90
      499
 91
      501
 93
      404
310
41D1DBDD5C985D5910240902404333333333333E33F0000000000000F9010740A9070040501641D405064090741402480A1B50
1001
ACAD
1000
AcDbSavedByObjectVersion
1070
     0
  0
ACAD_PROXY_OBJECT
  5
2E
102
{ACAD_REACTORS
330
2A
102
}
330
2A
100
AcDbProxyObject
 90
      499
 91
      501
 93
      492
310
4411DBDD5C985D5915DA5D1A115919D95CD0340902404333333333333E33F0000000000000F90107409019070040501600405405064090741402480A1B50
1001
ACAD
1000
AcDbSavedByObjectVersion
1070
     0
  0
ACAD_PROXY_OBJECT
  5
31
102
{ACAD_REACTORS
330
2A
102
}
330
2A
100
AcDbProxyObject
 90
      499
 91
      501
 93
      476
310
41921A5919195B90640502408333333333333E33F0000000000000F901079024090700405020000000000001110200405405064090740C02480A0340
1001
ACAD
1000
AcDbSavedByObjectVersion
1070
     0
  0
ACAD_PROXY_OBJECT
  5
3B
102
{ACAD_REACTORS
330
2A
102
}
330
2A
100
AcDbProxyObject
 90
      499
 91
      501
 93
      428
310
42529A5D1D195C93D999914409028333333333333E33F0000000000000F9010790141107004050150A41D405064090741402480A0350
1001
ACAD
1000
AcDbSavedByObjectVersion
1070
     0
  0
ACAD_PROXY_OBJECT
  5
38
102
{ACAD_REACTORS
330
2A
102
}
330
2A
100
AcDbProxyObject
 90
      499
 91
      501
 93
      444
310
42D31A5B995C185D1D195C9B90E409028333333333333E33F0000000000000F9010790141107004050750841D405064090741402483A0350
1001
ACAD
1000
AcDbSavedByObjectVersion
1070
     0
  0
ACAD_PROXY_OBJECT
  5
3C
102
{ACAD_REACTORS
330
2A
102
}
330
2A
100
AcDbProxyObject
 90
      499
 91
      501
 93
      444
310
42D3DD995C9A185B99D3D999915409028333333333333E33F0000000000000F9010790141107004050150941D405064090741402480A0350
1001
ACAD
1000
AcDbSavedByObjectVersion
1070
     0
  0
ACAD_PROXY_OBJECT
  5
33
102
{ACAD_REACTORS
330
2A
102
}
330
2A
100
AcDbProxyObject
 90
      499
 91
      501
 93
      428
310
425499585B1A5CDD1A58D08409038333333333333E33F0000000000000F9010740A907004050150800405405064090740C02480A1B40
1001
ACAD
1000
AcDbSavedByObjectVersion
1070
     0
  0
ACAD_PROXY_OBJECT
  5
42
102
{ACAD_REACTORS
330
2A
102
}
330
2A
100
AcDbProxyObject
 90
      499
 91
      501
 93
      420
310
4194DA1859195911B40902404333333333333E33F0000000000000F9010740A41107004050150800405405064090840C02480A0B40
1001
ACAD
1000
AcDbSavedByObjectVersion
1070
     0
  0
ACAD_PROXY_OBJECT
  5
41
102
{ACAD_REACTORS
330
2A
102
}
330
2A
100
AcDbProxyObject
 90
      499
 91
      501
 93
      516
310
4454DA18591959081DDA5D1A08195919D95CD1A40902404333333333333E33F0000000000000F901074090142907004050250800405405064090740C02480A0B40
1001
ACAD
1000
AcDbSavedByObjectVersion
1070
     0
  0
ACAD_PROXY_OBJECT
  5
3E
102
{ACAD_REACTORS
330
2A
102
}
330
2A
100
AcDbProxyObject
 90
      499
 91
      501
 93
      532
310
4394DA1859195CC81BD98811DC985E5174090240C333333333333E33F0000000000000F901079024090741D01000000000000111010841D405064090740C02480A0340
1001
ACAD
1000
AcDbSavedByObjectVersion
1070
     0
  0
ACAD_PROXY_OBJECT
  5
3F
102
{ACAD_REACTORS
330
2A
102
}
330
2A
100
AcDbProxyObject
 90
      499
 91
      501
 93
      476
310
41D4DAD95D18DA1E51840502408333333333333E33F0000000000000F901079024090741D01000000000000111010B41D405064090741802480A0340
1001
ACAD
1000
AcDbSavedByObjectVersion
1070
     0
  0
ACAD_PROXY_OBJECT
  5
37
102
{ACAD_REACTORS
330
2A
102
}
330
2A
100
AcDbProxyObject
 90
      499
 91
      501
 93
      412
310
41D51A1A58DAD95B90D409028333333333333E33F0000000000000F9010790141107004050150C41D405064090741402480A0350
1001
ACAD
1000
AcDbSavedByObjectVersion
1070
     0
  0
ACAD_PROXY_OBJECT
  5
30
102
{ACAD_REACTORS
330
2A
102
}
330
2A
100
AcDbProxyObject
 90
      499
 91
      501
 93
      420
310
4255DA5C99599C985B595059028333333333333E33F0000000000000F90107901411070040501600405405064090740C02480A0340
1001
ACAD
1000
AcDbSavedByObjectVersion
1070
     0
  0
ACAD_PROXY_OBJECT
  5
40
102
{ACAD_REACTORS
330
2A
102
}
330
2A
100
AcDbProxyObject
 90
      499
 91
      501
 93
      404
310
41560B54985E51940902404000000000000E03F0000000000000F9010740501907004050150841D405064090740C02480A1B40
1001
ACAD
1000
AcDbSavedByObjectVersion
1070
     0
  0
XRECORD
  5
8A4
102
{ACAD_REACTORS
330
89B
102
}
330
89B
100
AcDbXrecord
 90
        0
  0
XRECORD
  5
8BA
102
{ACAD_REACTORS
330
89B
102
}
330
89B
100
AcDbXrecord
1000
DSTYLE
1002
{
1070
   171
 70
     2
1070
   143
 40
25.4
1070
   274
 70
     2
1070
    41
 40
0.18
1070
   141
 40
0.09
1070
   271
 70
     4
1070
    43
 40
0.38
1070
   278
 70
    46
1070
    44
 40
0.18
1070
    42
 40
0.0625
1070
   147
 40
0.09
1070
    77
 70
     0
1070
   272
 70
     4
1070
    73
 70
     1
1070
   172
 70
     0
1070
    74
 70
     1
1070
   283
 70
     1
1070
   340
340
11
1070
   140
 40
0.18
1070
   284
 70
     0
1070
    78
 70
     0
1002
}
  0
XRECORD
  5
8A5
102
{ACAD_REACTORS
330
89B
102
}
330
89B
100
AcDbXrecord
  1
{1AB757A2-5825-4694-83CF-731884F03C7D}
  0
XRECORD
  5
89E
102
{ACAD_REACTORS
330
89B
102
}
330
89B
100
AcDbXrecord
  1

  0
XRECORD
  5
8A3
102
{ACAD_REACTORS
330
89B
102
}
330
89B
100
AcDbXrecord
 90
        4
  0
XRECORD
  5
8A0
102
{ACAD_REACTORS
330
89B
102
}
330
89B
100
AcDbXrecord
340
1A
  0
XRECORD
  5
8A2
102
{ACAD_REACTORS
330
89B
102
}
330
89B
100
AcDbXrecord
 90
    10781
  0
XRECORD
  5
8A1
102
{ACAD_REACTORS
330
89B
102
}
330
89B
100
AcDbXrecord
340
19
  0
XRECORD
  5
8A7
102
{ACAD_REACTORS
330
89B
102
}
330
89B
100
AcDbXrecord
 40
0.0
  0
XRECORD
  5
8AA
102
{ACAD_REACTORS
330
89B
102
}
330
89B
100
AcDbXrecord
340
0
  0
XRECORD
  5
8B0
102
{ACAD_REACTORS
330
89B
102
}
330
89B
100
AcDbXrecord
 10
0.0
 20
0.0
 30
0.0
  0
XRECORD
  5
8AC
102
{ACAD_REACTORS
330
89B
102
}
330
89B
100
AcDbXrecord
 10
0.0
 20
0.0
 30
0.0
  0
XRECORD
  5
8AF
102
{ACAD_REACTORS
330
89B
102
}
330
89B
100
AcDbXrecord
 10
0.0
 20
0.0
 30
0.0
  0
XRECORD
  5
8AD
102
{ACAD_REACTORS
330
89B
102
}
330
89B
100
AcDbXrecord
 10
0.0
 20
0.0
 30
0.0
  0
XRECORD
  5
8AE
102
{ACAD_REACTORS
330
89B
102
}
330
89B
100
AcDbXrecord
 10
0.0
 20
0.0
 30
0.0
  0
XRECORD
  5
8AB
102
{ACAD_REACTORS
330
89B
102
}
330
89B
100
AcDbXrecord
 10
0.0
 20
0.0
 30
0.0
  0
XRECORD
  5
8A8
102
{ACAD_REACTORS
330
89B
102
}
330
89B
100
AcDbXrecord
340
0
  0
XRECORD
  5
8A9
102
{ACAD_REACTORS
330
89B
102
}
330
89B
100
AcDbXrecord
 70
     0
  0
XRECORD
  5
89F
102
{ACAD_REACTORS
330
89B
102
}
330
89B
100
AcDbXrecord
  1

  0
XRECORD
  5
89C
102
{ACAD_REACTORS
330
89B
102
}
330
89B
100
AcDbXrecord
 90
        1
  0
XRECORD
  5
89D
102
{ACAD_REACTORS
330
89B
102
}
330
89B
100
AcDbXrecord
 90
       70
  0
XRECORD
  5
8B3
102
{ACAD_REACTORS
330
89B
102
}
330
89B
100
AcDbXrecord
340
0
  0
XRECORD
  5
8B9
102
{ACAD_REACTORS
330
89B
102
}
330
89B
100
AcDbXrecord
 10
0.0
 20
0.0
 30
0.0
  0
XRECORD
  5
8B5
102
{ACAD_REACTORS
330
89B
102
}
330
89B
100
AcDbXrecord
 10
0.0
 20
0.0
 30
0.0
  0
XRECORD
  5
8B8
102
{ACAD_REACTORS
330
89B
102
}
330
89B
100
AcDbXrecord
 10
0.0
 20
0.0
 30
0.0
  0
XRECORD
  5
8B6
102
{ACAD_REACTORS
330
89B
102
}
330
89B
100
AcDbXrecord
 10
0.0
 20
0.0
 30
0.0
  0
XRECORD
  5
8B7
102
{ACAD_REACTORS
330
89B
102
}
330
89B
100
AcDbXrecord
 10
0.0
 20
0.0
 30
0.0
  0
XRECORD
  5
8B4
102
{ACAD_REACTORS
330
89B
102
}
330
89B
100
AcDbXrecord
 10
0.0
 20
0.0
 30
0.0
  0
XRECORD
  5
8B1
102
{ACAD_REACTORS
330
89B
102
}
330
89B
100
AcDbXrecord
340
0
  0
XRECORD
  5
8B2
102
{ACAD_REACTORS
330
89B
102
}
330
89B
100
AcDbXrecord
 70
     0
  0
XRECORD
  5
8A6
102
{ACAD_REACTORS
330
89B
102
}
330
89B
100
AcDbXrecord
  1
{FAEB1C32-E019-11D5-929B-00C0DF256EC4}
  0
DICTIONARYVAR
  5
8C4
102
{ACAD_REACTORS
330
8BB
102
}
330
8BB
100
DictionaryVariables
280
     0
  1
1:1
  0
DICTIONARYVAR
  5
8C0
102
{ACAD_REACTORS
330
8BB
102
}
330
8BB
100
DictionaryVariables
280
     0
  1
2
  0
DICTIONARYVAR
  5
8C1
102
{ACAD_REACTORS
330
8BB
102
}
330
8BB
100
DictionaryVariables
280
     0
  1
1
  0
DICTIONARYVAR
  5
8C5
102
{ACAD_REACTORS
330
8BB
102
}
330
8BB
100
DictionaryVariables
280
     0
  1
1
  0
DICTIONARY
  5
8C8
330
45
100
AcDbDictionary
280
     1
  3
ACAD_XREC_ROUNDTRIP
360
8C9
  0
DICTIONARY
  5
8C6
330
44
100
AcDbDictionary
280
     1
  3
ACAD_XREC_ROUNDTRIP
360
8C7
  0
DICTIONARY
  5
8CA
330
46
100
AcDbDictionary
280
     1
  3
ACAD_XREC_ROUNDTRIP
360
8CB
  0
XRECORD
  5
8C9
102
{ACAD_REACTORS
330
8C8
102
}
330
8C8
100
AcDbXrecord
102
MATERIAL
148
0.0
149
0.0
149
0.0
 93
        0
 94
      127
282
     0
 72
     1
 77
     1
171
     1
175
     1
179
     1
273
     0
  0
XRECORD
  5
8C7
102
{ACAD_REACTORS
330
8C6
102
}
330
8C6
100
AcDbXrecord
102
MATERIAL
148
0.0
149
0.0
149
0.0
 93
        0
 94
      127
282
     0
 72
     1
 77
     1
171
     1
175
     1
179
     1
273
     0
  0
XRECORD
  5
8CB
102
{ACAD_REACTORS
330
8CA
102
}
330
8CA
100
AcDbXrecord
102
MATERIAL
148
0.0
149
0.0
149
0.0
 93
        0
 94
      127
282
     0
 72
     1
 77
     1
171
     1
175
     1
179
     1
273
     0
  0
ENDSEC
  0
EOF
